ISO-10303-21;
HEADER;
/* Generated by software containing ST-Developer
 * from STEP Tools, Inc. (www.steptools.com) 
 */

FILE_DESCRIPTION(
/* description */ (''),
/* implementation_level */ '2;1');

FILE_NAME(
/* name */ 'R:\\BE\\Transfert-temporaire\\SATURNE_365.stp',
/* time_stamp */ '2019-08-06T08:01:23+02:00',
/* author */ ('Giuliano'),
/* organization */ (''),
/* preprocessor_version */ 'ST-DEVELOPER v17.2',
/* originating_system */ 'Autodesk Inventor 2019',
/* authorisation */ '');

FILE_SCHEMA (('AUTOMOTIVE_DESIGN { 1 0 10303 214 3 1 1 }'));
ENDSEC;

DATA;
#10=MECHANICAL_DESIGN_GEOMETRIC_PRESENTATION_REPRESENTATION('',(#13),#323);
#11=SHAPE_REPRESENTATION_RELATIONSHIP('SRR','None',#330,#12);
#12=ADVANCED_BREP_SHAPE_REPRESENTATION('',(#14),#322);
#13=STYLED_ITEM('',(#339),#14);
#14=MANIFOLD_SOLID_BREP('Solide1',#101);
#15=TOROIDAL_SURFACE('',#131,233.132692307692,15.);
#16=FACE_BOUND('',#38,.T.);
#17=FACE_BOUND('',#40,.T.);
#18=B_SPLINE_CURVE_WITH_KNOTS('',3,(#179,#180,#181,#182,#183,#184,#185,
#186,#187,#188,#189,#190,#191,#192,#193,#194,#195,#196,#197,#198,#199,#200,
#201,#202,#203,#204,#205,#206,#207,#208,#209,#210,#211,#212),
 .UNSPECIFIED.,.F.,.F.,(4,2,2,2,2,2,2,2,2,2,2,2,2,2,2,2,4),(0.,0.249372586069511,
0.498745172139022,0.792306735080146,1.08586829802127,1.44652781412126,1.80718733022124,
2.24774480501479,2.68830227980834,3.14403301840826,3.59976375700819,3.99375361802551,
4.38774347904283,4.69588781266952,5.00403214629621,5.24533264176774,5.48663313723927),
 .UNSPECIFIED.);
#19=B_SPLINE_CURVE_WITH_KNOTS('',3,(#213,#214,#215,#216,#217,#218,#219,
#220,#221,#222,#223,#224,#225,#226,#227,#228,#229,#230,#231,#232,#233,#234,
#235,#236,#237,#238,#239,#240,#241,#242,#243,#244,#245,#246),
 .UNSPECIFIED.,.F.,.F.,(4,2,2,2,2,2,2,2,2,2,2,2,2,2,2,2,4),(5.48663313723927,
5.7279336327108,5.96923412818234,6.27737846180903,6.58552279543571,6.97951265645303,
7.37350251747035,7.82923325607028,8.28496399467021,8.72552146946376,9.16607894425731,
9.52673846035729,9.88739797645728,10.1809595393984,10.4745211023395,10.723893688409,
10.9732662744785),.UNSPECIFIED.);
#20=B_SPLINE_CURVE_WITH_KNOTS('',3,(#250,#251,#252,#253,#254,#255,#256,
#257,#258,#259,#260,#261,#262,#263,#264,#265,#266,#267,#268,#269,#270,#271,
#272,#273,#274,#275,#276,#277,#278,#279,#280,#281,#282,#283),
 .UNSPECIFIED.,.F.,.F.,(4,2,2,2,2,2,2,2,2,2,2,2,2,2,2,2,4),(0.,0.249372586069511,
0.498745172139022,0.792306735080146,1.08586829802127,1.44652781412126,1.80718733022124,
2.24774480501479,2.68830227980834,3.14403301840827,3.5997637570082,3.99375361802552,
4.38774347904284,4.69588781266952,5.00403214629621,5.24533264176774,5.48663313723927),
 .UNSPECIFIED.);
#21=B_SPLINE_CURVE_WITH_KNOTS('',3,(#284,#285,#286,#287,#288,#289,#290,
#291,#292,#293,#294,#295,#296,#297,#298,#299,#300,#301,#302,#303,#304,#305,
#306,#307,#308,#309,#310,#311,#312,#313,#314,#315,#316,#317),
 .UNSPECIFIED.,.F.,.F.,(4,2,2,2,2,2,2,2,2,2,2,2,2,2,2,2,4),(5.48663313723927,
5.72793363271081,5.96923412818234,6.27737846180903,6.58552279543572,6.97951265645304,
7.37350251747036,7.82923325607029,8.28496399467021,8.72552146946376,9.16607894425731,
9.52673846035729,9.88739797645728,10.1809595393984,10.4745211023395,10.723893688409,
10.9732662744786),.UNSPECIFIED.);
#22=PLANE('',#124);
#23=PLANE('',#128);
#24=PLANE('',#129);
#25=PLANE('',#130);
#26=FACE_OUTER_BOUND('',#33,.T.);
#27=FACE_OUTER_BOUND('',#34,.T.);
#28=FACE_OUTER_BOUND('',#35,.T.);
#29=FACE_OUTER_BOUND('',#36,.T.);
#30=FACE_OUTER_BOUND('',#37,.T.);
#31=FACE_OUTER_BOUND('',#39,.T.);
#32=FACE_OUTER_BOUND('',#41,.T.);
#33=EDGE_LOOP('',(#70,#71,#72,#73));
#34=EDGE_LOOP('',(#74));
#35=EDGE_LOOP('',(#75,#76,#77,#78));
#36=EDGE_LOOP('',(#79));
#37=EDGE_LOOP('',(#80,#81));
#38=EDGE_LOOP('',(#82));
#39=EDGE_LOOP('',(#83,#84));
#40=EDGE_LOOP('',(#85));
#41=EDGE_LOOP('',(#86,#87,#88,#89,#90,#91));
#42=LINE('',#166,#44);
#43=LINE('',#173,#45);
#44=VECTOR('',#139,8.);
#45=VECTOR('',#148,8.);
#46=CIRCLE('',#122,8.);
#47=CIRCLE('',#123,8.);
#48=CIRCLE('',#126,8.);
#49=CIRCLE('',#127,8.);
#50=CIRCLE('',#132,218.132692307692);
#51=VERTEX_POINT('',#163);
#52=VERTEX_POINT('',#165);
#53=VERTEX_POINT('',#170);
#54=VERTEX_POINT('',#172);
#55=VERTEX_POINT('',#177);
#56=VERTEX_POINT('',#178);
#57=VERTEX_POINT('',#248);
#58=VERTEX_POINT('',#249);
#59=EDGE_CURVE('',#51,#51,#46,.T.);
#60=EDGE_CURVE('',#51,#52,#42,.T.);
#61=EDGE_CURVE('',#52,#52,#47,.T.);
#62=EDGE_CURVE('',#53,#53,#48,.T.);
#63=EDGE_CURVE('',#53,#54,#43,.T.);
#64=EDGE_CURVE('',#54,#54,#49,.T.);
#65=EDGE_CURVE('',#55,#56,#18,.T.);
#66=EDGE_CURVE('',#56,#55,#19,.T.);
#67=EDGE_CURVE('',#57,#58,#20,.T.);
#68=EDGE_CURVE('',#58,#57,#21,.T.);
#69=EDGE_CURVE('',#56,#58,#50,.T.);
#70=ORIENTED_EDGE('',*,*,#59,.F.);
#71=ORIENTED_EDGE('',*,*,#60,.T.);
#72=ORIENTED_EDGE('',*,*,#61,.F.);
#73=ORIENTED_EDGE('',*,*,#60,.F.);
#74=ORIENTED_EDGE('',*,*,#61,.T.);
#75=ORIENTED_EDGE('',*,*,#62,.F.);
#76=ORIENTED_EDGE('',*,*,#63,.T.);
#77=ORIENTED_EDGE('',*,*,#64,.F.);
#78=ORIENTED_EDGE('',*,*,#63,.F.);
#79=ORIENTED_EDGE('',*,*,#64,.T.);
#80=ORIENTED_EDGE('',*,*,#65,.T.);
#81=ORIENTED_EDGE('',*,*,#66,.T.);
#82=ORIENTED_EDGE('',*,*,#62,.T.);
#83=ORIENTED_EDGE('',*,*,#67,.T.);
#84=ORIENTED_EDGE('',*,*,#68,.T.);
#85=ORIENTED_EDGE('',*,*,#59,.T.);
#86=ORIENTED_EDGE('',*,*,#65,.F.);
#87=ORIENTED_EDGE('',*,*,#66,.F.);
#88=ORIENTED_EDGE('',*,*,#69,.T.);
#89=ORIENTED_EDGE('',*,*,#67,.F.);
#90=ORIENTED_EDGE('',*,*,#68,.F.);
#91=ORIENTED_EDGE('',*,*,#69,.F.);
#92=CYLINDRICAL_SURFACE('',#121,8.);
#93=CYLINDRICAL_SURFACE('',#125,8.);
#94=ADVANCED_FACE('',(#26),#92,.F.);
#95=ADVANCED_FACE('',(#27),#22,.F.);
#96=ADVANCED_FACE('',(#28),#93,.F.);
#97=ADVANCED_FACE('',(#29),#23,.F.);
#98=ADVANCED_FACE('',(#30,#16),#24,.T.);
#99=ADVANCED_FACE('',(#31,#17),#25,.T.);
#100=ADVANCED_FACE('',(#32),#15,.T.);
#101=CLOSED_SHELL('',(#94,#95,#96,#97,#98,#99,#100));
#102=DERIVED_UNIT_ELEMENT(#104,1.);
#103=DERIVED_UNIT_ELEMENT(#325,3.);
#104=(
MASS_UNIT()
NAMED_UNIT(*)
SI_UNIT($,.GRAM.)
);
#105=DERIVED_UNIT((#102,#103));
#106=MEASURE_REPRESENTATION_ITEM('density measure',
POSITIVE_RATIO_MEASURE(1.),#105);
#107=PROPERTY_DEFINITION_REPRESENTATION(#112,#109);
#108=PROPERTY_DEFINITION_REPRESENTATION(#113,#110);
#109=REPRESENTATION('material name',(#111),#322);
#110=REPRESENTATION('density',(#106),#322);
#111=DESCRIPTIVE_REPRESENTATION_ITEM('G\X\E9n\X\E9rique','G\X\E9n\X\E9
rique');
#112=PROPERTY_DEFINITION('material property','material name',#332);
#113=PROPERTY_DEFINITION('material property','density of part',#332);
#114=DATE_TIME_ROLE('creation_date');
#115=APPLIED_DATE_AND_TIME_ASSIGNMENT(#116,#114,(#332));
#116=DATE_AND_TIME(#117,#118);
#117=CALENDAR_DATE(2009,13,10);
#118=LOCAL_TIME(13,17,9.,#119);
#119=COORDINATED_UNIVERSAL_TIME_OFFSET(0,0,.BEHIND.);
#120=AXIS2_PLACEMENT_3D('placement',#161,#133,#134);
#121=AXIS2_PLACEMENT_3D('',#162,#135,#136);
#122=AXIS2_PLACEMENT_3D('',#164,#137,#138);
#123=AXIS2_PLACEMENT_3D('',#167,#140,#141);
#124=AXIS2_PLACEMENT_3D('',#168,#142,#143);
#125=AXIS2_PLACEMENT_3D('',#169,#144,#145);
#126=AXIS2_PLACEMENT_3D('',#171,#146,#147);
#127=AXIS2_PLACEMENT_3D('',#174,#149,#150);
#128=AXIS2_PLACEMENT_3D('',#175,#151,#152);
#129=AXIS2_PLACEMENT_3D('',#176,#153,#154);
#130=AXIS2_PLACEMENT_3D('',#247,#155,#156);
#131=AXIS2_PLACEMENT_3D('',#318,#157,#158);
#132=AXIS2_PLACEMENT_3D('',#319,#159,#160);
#133=DIRECTION('axis',(0.,0.,1.));
#134=DIRECTION('refdir',(1.,0.,0.));
#135=DIRECTION('center_axis',(-1.,0.,0.));
#136=DIRECTION('ref_axis',(0.,-1.66533453693775E-16,1.));
#137=DIRECTION('center_axis',(-1.,0.,0.));
#138=DIRECTION('ref_axis',(0.,-1.66533453693775E-16,1.));
#139=DIRECTION('',(-1.,0.,0.));
#140=DIRECTION('center_axis',(1.,0.,0.));
#141=DIRECTION('ref_axis',(0.,-1.66533453693775E-16,1.));
#142=DIRECTION('center_axis',(-1.,0.,0.));
#143=DIRECTION('ref_axis',(0.,0.,1.));
#144=DIRECTION('center_axis',(-1.,0.,0.));
#145=DIRECTION('ref_axis',(0.,-1.66533453693775E-16,1.));
#146=DIRECTION('center_axis',(-1.,0.,0.));
#147=DIRECTION('ref_axis',(0.,-1.66533453693775E-16,1.));
#148=DIRECTION('',(-1.,0.,0.));
#149=DIRECTION('center_axis',(1.,0.,0.));
#150=DIRECTION('ref_axis',(0.,-1.66533453693775E-16,1.));
#151=DIRECTION('center_axis',(-1.,0.,0.));
#152=DIRECTION('ref_axis',(0.,0.,1.));
#153=DIRECTION('center_axis',(1.,0.,0.));
#154=DIRECTION('ref_axis',(0.,0.,-1.));
#155=DIRECTION('center_axis',(1.,0.,0.));
#156=DIRECTION('ref_axis',(0.,0.,-1.));
#157=DIRECTION('center_axis',(0.,-1.,0.));
#158=DIRECTION('ref_axis',(0.,0.,-1.));
#159=DIRECTION('center_axis',(0.,1.,0.));
#160=DIRECTION('ref_axis',(0.,0.,-1.));
#161=CARTESIAN_POINT('',(0.,0.,0.));
#162=CARTESIAN_POINT('Origin',(0.,-5.25945256509912E-14,150.));
#163=CARTESIAN_POINT('',(0.,-5.02825405821231E-14,142.));
#164=CARTESIAN_POINT('Origin',(0.,-5.25945256509912E-14,150.));
#165=CARTESIAN_POINT('',(-2.,-5.02825405821231E-14,142.));
#166=CARTESIAN_POINT('',(0.,-5.22419754607589E-14,142.));
#167=CARTESIAN_POINT('Origin',(-2.,-5.25945256509912E-14,150.));
#168=CARTESIAN_POINT('Origin',(-2.,-5.25945256509912E-14,150.));
#169=CARTESIAN_POINT('Origin',(0.,-2.63448954285873E-15,-150.));
#170=CARTESIAN_POINT('',(0.,-3.22504473990645E-16,-158.));
#171=CARTESIAN_POINT('Origin',(0.,-2.63448954285873E-15,-150.));
#172=CARTESIAN_POINT('',(-2.,-3.22504473990645E-16,-158.));
#173=CARTESIAN_POINT('',(0.,-2.28193935262641E-15,-158.));
#174=CARTESIAN_POINT('Origin',(-2.,-2.63448954285873E-15,-150.));
#175=CARTESIAN_POINT('Origin',(-2.,-2.63448954285873E-15,-150.));
#176=CARTESIAN_POINT('Origin',(0.,0.,0.));
#177=CARTESIAN_POINT('',(2.15039643816395E-18,2.77555756156289E-15,-182.486248164706));
#178=CARTESIAN_POINT('',(-6.86185438479619E-19,3.00015327053268E-15,-138.972188695326));
#179=CARTESIAN_POINT('Ctrl Pts',(9.95208361399813E-19,1.66533453693773E-15,
-182.486248164706));
#180=CARTESIAN_POINT('Ctrl Pts',(1.34297774955025E-18,0.831241953565038,
-182.486248164706));
#181=CARTESIAN_POINT('Ctrl Pts',(0.,1.73561120560361,-182.38557837603));
#182=CARTESIAN_POINT('Ctrl Pts',(0.,3.49243730025926,-181.962481717592));
#183=CARTESIAN_POINT('Ctrl Pts',(0.,4.34507557356364,-181.640808558379));
#184=CARTESIAN_POINT('Ctrl Pts',(0.,5.96888230942988,-180.841710860473));
#185=CARTESIAN_POINT('Ctrl Pts',(-3.30872245021211E-23,6.86958315624079,
-180.262902463239));
#186=CARTESIAN_POINT('Ctrl Pts',(-3.30872245021211E-23,8.51845710213295,
-178.913257568216));
#187=CARTESIAN_POINT('Ctrl Pts',(0.,9.26779738319117,-178.143847657022));
#188=CARTESIAN_POINT('Ctrl Pts',(0.,10.6579765495279,-176.463664499165));
#189=CARTESIAN_POINT('Ctrl Pts',(0.,11.3920757436175,-175.370313331819));
#190=CARTESIAN_POINT('Ctrl Pts',(0.,12.635564400635,-173.058738591364));
#191=CARTESIAN_POINT('Ctrl Pts',(0.,13.1466375896492,-171.841421157372));
#192=CARTESIAN_POINT('Ctrl Pts',(0.,14.0073839734535,-169.313204666673));
#193=CARTESIAN_POINT('Ctrl Pts',(-2.06795153138257E-24,14.3948211763262,
-167.749901652596));
#194=CARTESIAN_POINT('Ctrl Pts',(-2.06795153138257E-24,14.8904866134272,
-164.5774613138));
#195=CARTESIAN_POINT('Ctrl Pts',(0.,15.,-162.968524915979));
#196=CARTESIAN_POINT('Ctrl Pts',(0.,15.,-159.980897538));
#197=CARTESIAN_POINT('Ctrl Pts',(0.,14.8826428466208,-158.317201054547));
#198=CARTESIAN_POINT('Ctrl Pts',(0.,14.3750357726805,-155.032612207771));
#199=CARTESIAN_POINT('Ctrl Pts',(0.,13.9845408620025,-153.4117577104));
#200=CARTESIAN_POINT('Ctrl Pts',(0.,13.1153603431778,-150.716015454903));
#201=CARTESIAN_POINT('Ctrl Pts',(3.30872245021211E-23,12.584636235098,-149.374673448721));
#202=CARTESIAN_POINT('Ctrl Pts',(3.30872245021211E-23,11.2958259366514,
-146.810333929309));
#203=CARTESIAN_POINT('Ctrl Pts',(0.,10.5361325032319,-145.588144515179));
#204=CARTESIAN_POINT('Ctrl Pts',(0.,9.11566850503614,-143.728043532337));
#205=CARTESIAN_POINT('Ctrl Pts',(0.,8.36624956924942,-142.885154289913));
#206=CARTESIAN_POINT('Ctrl Pts',(0.,6.70417822407335,-141.389464884654));
#207=CARTESIAN_POINT('Ctrl Pts',(0.,5.78969741878751,-140.738697759884));
#208=CARTESIAN_POINT('Ctrl Pts',(0.,4.17663332742489,-139.871314712585));
#209=CARTESIAN_POINT('Ctrl Pts',(-1.65436122510606E-23,3.36277225379437,
-139.531683038534));
#210=CARTESIAN_POINT('Ctrl Pts',(-1.65436122510606E-23,1.67682157036029,
-139.081376232571));
#211=CARTESIAN_POINT('Ctrl Pts',(-1.02431321037377E-19,0.804334984905108,
-138.972188695326));
#212=CARTESIAN_POINT('Ctrl Pts',(3.66640085803561E-19,-1.38777878078145E-15,
-138.972188695326));
#213=CARTESIAN_POINT('Ctrl Pts',(-2.684185494035E-18,3.60822483003176E-15,
-138.972188695326));
#214=CARTESIAN_POINT('Ctrl Pts',(-2.60217085213348E-18,-0.8043349849051,
-138.972188695326));
#215=CARTESIAN_POINT('Ctrl Pts',(0.,-1.67682157036028,-139.081376232571));
#216=CARTESIAN_POINT('Ctrl Pts',(0.,-3.36277225379436,-139.531683038534));
#217=CARTESIAN_POINT('Ctrl Pts',(0.,-4.17663332742488,-139.871314712585));
#218=CARTESIAN_POINT('Ctrl Pts',(0.,-5.78969741878749,-140.738697759884));
#219=CARTESIAN_POINT('Ctrl Pts',(0.,-6.70417822407334,-141.389464884654));
#220=CARTESIAN_POINT('Ctrl Pts',(0.,-8.36624956924942,-142.885154289913));
#221=CARTESIAN_POINT('Ctrl Pts',(0.,-9.11566850503613,-143.728043532337));
#222=CARTESIAN_POINT('Ctrl Pts',(0.,-10.5361325032319,-145.588144515179));
#223=CARTESIAN_POINT('Ctrl Pts',(0.,-11.2958259366514,-146.810333929309));
#224=CARTESIAN_POINT('Ctrl Pts',(0.,-12.584636235098,-149.374673448721));
#225=CARTESIAN_POINT('Ctrl Pts',(0.,-13.1153603431778,-150.716015454903));
#226=CARTESIAN_POINT('Ctrl Pts',(0.,-13.9845408620025,-153.4117577104));
#227=CARTESIAN_POINT('Ctrl Pts',(0.,-14.3750357726804,-155.032612207771));
#228=CARTESIAN_POINT('Ctrl Pts',(0.,-14.8826428466208,-158.317201054547));
#229=CARTESIAN_POINT('Ctrl Pts',(0.,-15.,-159.980897538));
#230=CARTESIAN_POINT('Ctrl Pts',(0.,-15.,-162.968524915979));
#231=CARTESIAN_POINT('Ctrl Pts',(-2.06795153138257E-24,-14.8904866134272,
-164.5774613138));
#232=CARTESIAN_POINT('Ctrl Pts',(-2.06795153138257E-24,-14.3948211763262,
-167.749901652596));
#233=CARTESIAN_POINT('Ctrl Pts',(0.,-14.0073839734535,-169.313204666673));
#234=CARTESIAN_POINT('Ctrl Pts',(0.,-13.1466375896492,-171.841421157372));
#235=CARTESIAN_POINT('Ctrl Pts',(0.,-12.635564400635,-173.058738591364));
#236=CARTESIAN_POINT('Ctrl Pts',(0.,-11.3920757436175,-175.370313331819));
#237=CARTESIAN_POINT('Ctrl Pts',(0.,-10.6579765495279,-176.463664499165));
#238=CARTESIAN_POINT('Ctrl Pts',(0.,-9.26779738319117,-178.143847657022));
#239=CARTESIAN_POINT('Ctrl Pts',(-3.30872245021211E-23,-8.51845710213295,
-178.913257568215));
#240=CARTESIAN_POINT('Ctrl Pts',(-3.30872245021211E-23,-6.86958315624079,
-180.262902463239));
#241=CARTESIAN_POINT('Ctrl Pts',(0.,-5.96888230942989,-180.841710860473));
#242=CARTESIAN_POINT('Ctrl Pts',(0.,-4.34507557356365,-181.640808558379));
#243=CARTESIAN_POINT('Ctrl Pts',(-3.30872245021211E-23,-3.49243730025926,
-181.962481717592));
#244=CARTESIAN_POINT('Ctrl Pts',(-3.30872245021211E-23,-1.7356112056036,
-182.38557837603));
#245=CARTESIAN_POINT('Ctrl Pts',(2.97340585096872E-20,-0.831241953565036,
-182.486248164706));
#246=CARTESIAN_POINT('Ctrl Pts',(1.62991615170404E-19,-2.22044604925031E-15,
-182.486248164706));
#247=CARTESIAN_POINT('Origin',(0.,0.,0.));
#248=CARTESIAN_POINT('',(-3.32853070727423E-19,-2.77555756156289E-16,182.486248164706));
#249=CARTESIAN_POINT('',(5.82899100536701E-19,1.47359661167309E-15,138.972188695326));
#250=CARTESIAN_POINT('Ctrl Pts',(-1.74284240877698E-18,-1.11022302462516E-15,
182.486248164706));
#251=CARTESIAN_POINT('Ctrl Pts',(-1.7495024054581E-18,-0.831241953565038,
182.486248164706));
#252=CARTESIAN_POINT('Ctrl Pts',(0.,-1.73561120560361,182.38557837603));
#253=CARTESIAN_POINT('Ctrl Pts',(0.,-3.49243730025927,181.962481717591));
#254=CARTESIAN_POINT('Ctrl Pts',(0.,-4.34507557356365,181.640808558379));
#255=CARTESIAN_POINT('Ctrl Pts',(0.,-5.96888230942988,180.841710860472));
#256=CARTESIAN_POINT('Ctrl Pts',(-3.30872245021211E-23,-6.8695831562408,
180.262902463239));
#257=CARTESIAN_POINT('Ctrl Pts',(-3.30872245021211E-23,-8.51845710213296,
178.913257568215));
#258=CARTESIAN_POINT('Ctrl Pts',(0.,-9.26779738319117,178.143847657022));
#259=CARTESIAN_POINT('Ctrl Pts',(0.,-10.6579765495279,176.463664499165));
#260=CARTESIAN_POINT('Ctrl Pts',(0.,-11.3920757436175,175.370313331819));
#261=CARTESIAN_POINT('Ctrl Pts',(0.,-12.635564400635,173.058738591364));
#262=CARTESIAN_POINT('Ctrl Pts',(0.,-13.1466375896492,171.841421157372));
#263=CARTESIAN_POINT('Ctrl Pts',(0.,-14.0073839734535,169.313204666673));
#264=CARTESIAN_POINT('Ctrl Pts',(0.,-14.3948211763262,167.749901652596));
#265=CARTESIAN_POINT('Ctrl Pts',(0.,-14.8904866134272,164.5774613138));
#266=CARTESIAN_POINT('Ctrl Pts',(0.,-15.,162.968524915978));
#267=CARTESIAN_POINT('Ctrl Pts',(0.,-15.,159.980897538));
#268=CARTESIAN_POINT('Ctrl Pts',(0.,-14.8826428466208,158.317201054547));
#269=CARTESIAN_POINT('Ctrl Pts',(0.,-14.3750357726804,155.032612207771));
#270=CARTESIAN_POINT('Ctrl Pts',(0.,-13.9845408620025,153.4117577104));
#271=CARTESIAN_POINT('Ctrl Pts',(0.,-13.1153603431778,150.716015454903));
#272=CARTESIAN_POINT('Ctrl Pts',(0.,-12.584636235098,149.374673448721));
#273=CARTESIAN_POINT('Ctrl Pts',(0.,-11.2958259366514,146.810333929308));
#274=CARTESIAN_POINT('Ctrl Pts',(0.,-10.5361325032319,145.588144515179));
#275=CARTESIAN_POINT('Ctrl Pts',(0.,-9.11566850503613,143.728043532337));
#276=CARTESIAN_POINT('Ctrl Pts',(0.,-8.36624956924942,142.885154289913));
#277=CARTESIAN_POINT('Ctrl Pts',(0.,-6.70417822407334,141.389464884654));
#278=CARTESIAN_POINT('Ctrl Pts',(0.,-5.78969741878749,140.738697759884));
#279=CARTESIAN_POINT('Ctrl Pts',(0.,-4.17663332742488,139.871314712584));
#280=CARTESIAN_POINT('Ctrl Pts',(0.,-3.36277225379436,139.531683038534));
#281=CARTESIAN_POINT('Ctrl Pts',(0.,-1.67682157036029,139.081376232571));
#282=CARTESIAN_POINT('Ctrl Pts',(9.92523340283764E-19,-0.804334984905105,
138.972188695326));
#283=CARTESIAN_POINT('Ctrl Pts',(1.34243839826106E-18,1.38777878078145E-15,
138.972188695326));
#284=CARTESIAN_POINT('Ctrl Pts',(1.67306618488647E-18,1.38777878078145E-15,
138.972188695326));
#285=CARTESIAN_POINT('Ctrl Pts',(1.64367239344912E-18,0.804334984905108,
138.972188695326));
#286=CARTESIAN_POINT('Ctrl Pts',(0.,1.67682157036029,139.081376232571));
#287=CARTESIAN_POINT('Ctrl Pts',(0.,3.36277225379437,139.531683038534));
#288=CARTESIAN_POINT('Ctrl Pts',(0.,4.17663332742489,139.871314712584));
#289=CARTESIAN_POINT('Ctrl Pts',(0.,5.7896974187875,140.738697759884));
#290=CARTESIAN_POINT('Ctrl Pts',(6.61744490042422E-23,6.70417822407335,
141.389464884654));
#291=CARTESIAN_POINT('Ctrl Pts',(6.61744490042422E-23,8.36624956924943,
142.885154289913));
#292=CARTESIAN_POINT('Ctrl Pts',(0.,9.11566850503614,143.728043532337));
#293=CARTESIAN_POINT('Ctrl Pts',(0.,10.5361325032319,145.588144515179));
#294=CARTESIAN_POINT('Ctrl Pts',(0.,11.2958259366514,146.810333929309));
#295=CARTESIAN_POINT('Ctrl Pts',(0.,12.584636235098,149.374673448721));
#296=CARTESIAN_POINT('Ctrl Pts',(0.,13.1153603431778,150.716015454903));
#297=CARTESIAN_POINT('Ctrl Pts',(0.,13.9845408620025,153.4117577104));
#298=CARTESIAN_POINT('Ctrl Pts',(0.,14.3750357726805,155.032612207771));
#299=CARTESIAN_POINT('Ctrl Pts',(0.,14.8826428466208,158.317201054547));
#300=CARTESIAN_POINT('Ctrl Pts',(0.,15.,159.980897538));
#301=CARTESIAN_POINT('Ctrl Pts',(0.,15.,162.968524915978));
#302=CARTESIAN_POINT('Ctrl Pts',(0.,14.8904866134272,164.5774613138));
#303=CARTESIAN_POINT('Ctrl Pts',(0.,14.3948211763262,167.749901652596));
#304=CARTESIAN_POINT('Ctrl Pts',(0.,14.0073839734535,169.313204666673));
#305=CARTESIAN_POINT('Ctrl Pts',(0.,13.1466375896492,171.841421157372));
#306=CARTESIAN_POINT('Ctrl Pts',(0.,12.635564400635,173.058738591364));
#307=CARTESIAN_POINT('Ctrl Pts',(0.,11.3920757436175,175.370313331819));
#308=CARTESIAN_POINT('Ctrl Pts',(0.,10.6579765495279,176.463664499165));
#309=CARTESIAN_POINT('Ctrl Pts',(0.,9.26779738319117,178.143847657022));
#310=CARTESIAN_POINT('Ctrl Pts',(3.30872245021211E-23,8.51845710213291,
178.913257568215));
#311=CARTESIAN_POINT('Ctrl Pts',(3.30872245021211E-23,6.86958315624075,
180.262902463239));
#312=CARTESIAN_POINT('Ctrl Pts',(0.,5.96888230942987,180.841710860472));
#313=CARTESIAN_POINT('Ctrl Pts',(0.,4.34507557356365,181.640808558379));
#314=CARTESIAN_POINT('Ctrl Pts',(0.,3.49243730025927,181.962481717591));
#315=CARTESIAN_POINT('Ctrl Pts',(0.,1.73561120560361,182.38557837603));
#316=CARTESIAN_POINT('Ctrl Pts',(2.23457942621035E-18,0.831241953565039,
182.486248164706));
#317=CARTESIAN_POINT('Ctrl Pts',(1.80820662286524E-18,0.,182.486248164706));
#318=CARTESIAN_POINT('Origin',(168.132692307692,0.,-3.5527136788005E-14));
#319=CARTESIAN_POINT('Origin',(168.132692307692,1.83697019872103E-15,-3.5527136788005E-14));
#320=UNCERTAINTY_MEASURE_WITH_UNIT(LENGTH_MEASURE(0.01),#324,
'DISTANCE_ACCURACY_VALUE',
'Maximum model space distance between geometric entities at asserted c
onnectivities');
#321=UNCERTAINTY_MEASURE_WITH_UNIT(LENGTH_MEASURE(0.01),#324,
'DISTANCE_ACCURACY_VALUE',
'Maximum model space distance between geometric entities at asserted c
onnectivities');
#322=(
GEOMETRIC_REPRESENTATION_CONTEXT(3)
GLOBAL_UNCERTAINTY_ASSIGNED_CONTEXT((#320))
GLOBAL_UNIT_ASSIGNED_CONTEXT((#324,#326,#327))
REPRESENTATION_CONTEXT('','3D')
);
#323=(
GEOMETRIC_REPRESENTATION_CONTEXT(3)
GLOBAL_UNCERTAINTY_ASSIGNED_CONTEXT((#321))
GLOBAL_UNIT_ASSIGNED_CONTEXT((#324,#326,#327))
REPRESENTATION_CONTEXT('','3D')
);
#324=(
LENGTH_UNIT()
NAMED_UNIT(*)
SI_UNIT(.MILLI.,.METRE.)
);
#325=(
LENGTH_UNIT()
NAMED_UNIT(*)
SI_UNIT(.CENTI.,.METRE.)
);
#326=(
NAMED_UNIT(*)
PLANE_ANGLE_UNIT()
SI_UNIT($,.RADIAN.)
);
#327=(
NAMED_UNIT(*)
SI_UNIT($,.STERADIAN.)
SOLID_ANGLE_UNIT()
);
#328=SHAPE_DEFINITION_REPRESENTATION(#329,#330);
#329=PRODUCT_DEFINITION_SHAPE('',$,#332);
#330=SHAPE_REPRESENTATION('',(#120),#322);
#331=PRODUCT_DEFINITION_CONTEXT('part definition',#336,'design');
#332=PRODUCT_DEFINITION('102102_E1','SATURNE_365',#333,#331);
#333=PRODUCT_DEFINITION_FORMATION('',$,#338);
#334=PRODUCT_RELATED_PRODUCT_CATEGORY('SATURNE_365','SATURNE_365',(#338));
#335=APPLICATION_PROTOCOL_DEFINITION('international standard',
'automotive_design',2009,#336);
#336=APPLICATION_CONTEXT(
'Core Data for Automotive Mechanical Design Process');
#337=PRODUCT_CONTEXT('part definition',#336,'mechanical');
#338=PRODUCT('102102_E1','SATURNE_365',$,(#337));
#339=PRESENTATION_STYLE_ASSIGNMENT((#340));
#340=SURFACE_STYLE_USAGE(.BOTH.,#343);
#341=SURFACE_STYLE_RENDERING_WITH_PROPERTIES($,#347,(#342));
#342=SURFACE_STYLE_TRANSPARENT(0.);
#343=SURFACE_SIDE_STYLE('',(#344,#341));
#344=SURFACE_STYLE_FILL_AREA(#345);
#345=FILL_AREA_STYLE('',(#346));
#346=FILL_AREA_STYLE_COLOUR('',#347);
#347=COLOUR_RGB('',0.749019607843137,0.749019607843137,0.749019607843137);
ENDSEC;
END-ISO-10303-21;
