ISO-10303-21;
HEADER;
/* Generated by software containing ST-Developer
 * from STEP Tools, Inc. (www.steptools.com) 
 */

FILE_DESCRIPTION(
/* description */ (''),
/* implementation_level */ '2;1');

FILE_NAME(
/* name */ 'R:\\BE\\Transfert-temporaire\\RD-6B.stp',
/* time_stamp */ '2019-08-29T12:04:38+02:00',
/* author */ ('marc'),
/* organization */ (''),
/* preprocessor_version */ 'ST-DEVELOPER v17.2',
/* originating_system */ 'Autodesk Inventor 2019',
/* authorisation */ '');

FILE_SCHEMA (('AUTOMOTIVE_DESIGN { 1 0 10303 214 3 1 1 }'));
ENDSEC;

DATA;
#10=MECHANICAL_DESIGN_GEOMETRIC_PRESENTATION_REPRESENTATION('',(#13),#472);
#11=SHAPE_REPRESENTATION_RELATIONSHIP('SRR','None',#479,#12);
#12=ADVANCED_BREP_SHAPE_REPRESENTATION('',(#14),#471);
#13=STYLED_ITEM('',(#488),#14);
#14=MANIFOLD_SOLID_BREP('Solide1',#256);
#15=FACE_BOUND('',#50,.T.);
#16=FACE_BOUND('',#51,.T.);
#17=FACE_BOUND('',#52,.T.);
#18=FACE_BOUND('',#53,.T.);
#19=FACE_BOUND('',#57,.T.);
#20=FACE_BOUND('',#58,.T.);
#21=PLANE('',#304);
#22=PLANE('',#305);
#23=PLANE('',#309);
#24=PLANE('',#310);
#25=TOROIDAL_SURFACE('',#281,27.,7.);
#26=TOROIDAL_SURFACE('',#287,27.,7.);
#27=FACE_OUTER_BOUND('',#40,.T.);
#28=FACE_OUTER_BOUND('',#41,.T.);
#29=FACE_OUTER_BOUND('',#42,.T.);
#30=FACE_OUTER_BOUND('',#43,.T.);
#31=FACE_OUTER_BOUND('',#44,.T.);
#32=FACE_OUTER_BOUND('',#45,.T.);
#33=FACE_OUTER_BOUND('',#46,.T.);
#34=FACE_OUTER_BOUND('',#47,.T.);
#35=FACE_OUTER_BOUND('',#48,.T.);
#36=FACE_OUTER_BOUND('',#49,.T.);
#37=FACE_OUTER_BOUND('',#54,.T.);
#38=FACE_OUTER_BOUND('',#55,.T.);
#39=FACE_OUTER_BOUND('',#56,.T.);
#40=EDGE_LOOP('',(#166,#167,#168,#169,#170,#171));
#41=EDGE_LOOP('',(#172,#173,#174,#175,#176,#177));
#42=EDGE_LOOP('',(#178,#179,#180,#181,#182));
#43=EDGE_LOOP('',(#183,#184,#185,#186,#187,#188));
#44=EDGE_LOOP('',(#189,#190,#191,#192,#193));
#45=EDGE_LOOP('',(#194,#195,#196,#197,#198));
#46=EDGE_LOOP('',(#199,#200,#201,#202,#203));
#47=EDGE_LOOP('',(#204,#205,#206,#207));
#48=EDGE_LOOP('',(#208,#209,#210,#211));
#49=EDGE_LOOP('',(#212,#213,#214,#215));
#50=EDGE_LOOP('',(#216));
#51=EDGE_LOOP('',(#217));
#52=EDGE_LOOP('',(#218,#219));
#53=EDGE_LOOP('',(#220,#221));
#54=EDGE_LOOP('',(#222,#223,#224,#225));
#55=EDGE_LOOP('',(#226,#227,#228,#229));
#56=EDGE_LOOP('',(#230,#231,#232,#233));
#57=EDGE_LOOP('',(#234));
#58=EDGE_LOOP('',(#235));
#59=LINE('',#402,#72);
#60=LINE('',#415,#73);
#61=LINE('',#425,#74);
#62=LINE('',#433,#75);
#63=LINE('',#441,#76);
#64=LINE('',#448,#77);
#65=LINE('',#451,#78);
#66=LINE('',#454,#79);
#67=LINE('',#456,#80);
#68=LINE('',#457,#81);
#69=LINE('',#460,#82);
#70=LINE('',#464,#83);
#71=LINE('',#467,#84);
#72=VECTOR('',#317,7.);
#73=VECTOR('',#334,7.);
#74=VECTOR('',#347,7.);
#75=VECTOR('',#356,4.5);
#76=VECTOR('',#365,4.5);
#77=VECTOR('',#372,10.);
#78=VECTOR('',#375,10.);
#79=VECTOR('',#378,10.);
#80=VECTOR('',#379,10.);
#81=VECTOR('',#380,10.);
#82=VECTOR('',#383,10.);
#83=VECTOR('',#388,10.);
#84=VECTOR('',#393,10.);
#85=CIRCLE('',#277,7.);
#86=CIRCLE('',#278,7.);
#87=CIRCLE('',#279,7.);
#88=CIRCLE('',#280,7.);
#89=CIRCLE('',#282,20.);
#90=CIRCLE('',#283,7.);
#91=CIRCLE('',#284,7.);
#92=CIRCLE('',#286,7.);
#93=CIRCLE('',#288,20.);
#94=CIRCLE('',#289,7.);
#95=CIRCLE('',#290,7.);
#96=CIRCLE('',#292,7.);
#97=CIRCLE('',#294,4.5);
#98=CIRCLE('',#295,4.5);
#99=CIRCLE('',#296,4.5);
#100=CIRCLE('',#298,4.5);
#101=CIRCLE('',#299,4.5);
#102=CIRCLE('',#300,4.5);
#103=CIRCLE('',#302,118.497058823529);
#104=CIRCLE('',#303,118.497058823529);
#105=CIRCLE('',#306,118.497058823529);
#106=CIRCLE('',#308,118.497058823529);
#107=VERTEX_POINT('',#398);
#108=VERTEX_POINT('',#399);
#109=VERTEX_POINT('',#401);
#110=VERTEX_POINT('',#403);
#111=VERTEX_POINT('',#408);
#112=VERTEX_POINT('',#410);
#113=VERTEX_POINT('',#414);
#114=VERTEX_POINT('',#418);
#115=VERTEX_POINT('',#420);
#116=VERTEX_POINT('',#424);
#117=VERTEX_POINT('',#428);
#118=VERTEX_POINT('',#429);
#119=VERTEX_POINT('',#432);
#120=VERTEX_POINT('',#436);
#121=VERTEX_POINT('',#437);
#122=VERTEX_POINT('',#440);
#123=VERTEX_POINT('',#444);
#124=VERTEX_POINT('',#445);
#125=VERTEX_POINT('',#447);
#126=VERTEX_POINT('',#449);
#127=VERTEX_POINT('',#453);
#128=VERTEX_POINT('',#455);
#129=VERTEX_POINT('',#459);
#130=VERTEX_POINT('',#463);
#131=EDGE_CURVE('',#107,#108,#85,.T.);
#132=EDGE_CURVE('',#108,#109,#59,.T.);
#133=EDGE_CURVE('',#110,#109,#86,.T.);
#134=EDGE_CURVE('',#109,#110,#87,.T.);
#135=EDGE_CURVE('',#108,#107,#88,.T.);
#136=EDGE_CURVE('',#108,#111,#89,.T.);
#137=EDGE_CURVE('',#111,#112,#90,.T.);
#138=EDGE_CURVE('',#112,#111,#91,.T.);
#139=EDGE_CURVE('',#111,#113,#60,.T.);
#140=EDGE_CURVE('',#113,#113,#92,.T.);
#141=EDGE_CURVE('',#109,#114,#93,.T.);
#142=EDGE_CURVE('',#115,#114,#94,.T.);
#143=EDGE_CURVE('',#114,#115,#95,.T.);
#144=EDGE_CURVE('',#114,#116,#61,.T.);
#145=EDGE_CURVE('',#116,#116,#96,.T.);
#146=EDGE_CURVE('',#117,#118,#97,.T.);
#147=EDGE_CURVE('',#118,#117,#98,.T.);
#148=EDGE_CURVE('',#118,#119,#62,.T.);
#149=EDGE_CURVE('',#119,#119,#99,.T.);
#150=EDGE_CURVE('',#120,#121,#100,.T.);
#151=EDGE_CURVE('',#121,#120,#101,.T.);
#152=EDGE_CURVE('',#121,#122,#63,.T.);
#153=EDGE_CURVE('',#122,#122,#102,.T.);
#154=EDGE_CURVE('',#123,#124,#103,.T.);
#155=EDGE_CURVE('',#125,#123,#64,.T.);
#156=EDGE_CURVE('',#126,#125,#104,.T.);
#157=EDGE_CURVE('',#124,#126,#65,.T.);
#158=EDGE_CURVE('',#123,#127,#66,.T.);
#159=EDGE_CURVE('',#127,#128,#67,.T.);
#160=EDGE_CURVE('',#128,#125,#68,.T.);
#161=EDGE_CURVE('',#129,#124,#69,.T.);
#162=EDGE_CURVE('',#129,#127,#105,.T.);
#163=EDGE_CURVE('',#130,#129,#70,.T.);
#164=EDGE_CURVE('',#128,#130,#106,.T.);
#165=EDGE_CURVE('',#126,#130,#71,.T.);
#166=ORIENTED_EDGE('',*,*,#131,.T.);
#167=ORIENTED_EDGE('',*,*,#132,.T.);
#168=ORIENTED_EDGE('',*,*,#133,.F.);
#169=ORIENTED_EDGE('',*,*,#134,.F.);
#170=ORIENTED_EDGE('',*,*,#132,.F.);
#171=ORIENTED_EDGE('',*,*,#135,.T.);
#172=ORIENTED_EDGE('',*,*,#131,.F.);
#173=ORIENTED_EDGE('',*,*,#135,.F.);
#174=ORIENTED_EDGE('',*,*,#136,.T.);
#175=ORIENTED_EDGE('',*,*,#137,.T.);
#176=ORIENTED_EDGE('',*,*,#138,.T.);
#177=ORIENTED_EDGE('',*,*,#136,.F.);
#178=ORIENTED_EDGE('',*,*,#138,.F.);
#179=ORIENTED_EDGE('',*,*,#137,.F.);
#180=ORIENTED_EDGE('',*,*,#139,.T.);
#181=ORIENTED_EDGE('',*,*,#140,.F.);
#182=ORIENTED_EDGE('',*,*,#139,.F.);
#183=ORIENTED_EDGE('',*,*,#133,.T.);
#184=ORIENTED_EDGE('',*,*,#141,.T.);
#185=ORIENTED_EDGE('',*,*,#142,.F.);
#186=ORIENTED_EDGE('',*,*,#143,.F.);
#187=ORIENTED_EDGE('',*,*,#141,.F.);
#188=ORIENTED_EDGE('',*,*,#134,.T.);
#189=ORIENTED_EDGE('',*,*,#142,.T.);
#190=ORIENTED_EDGE('',*,*,#144,.T.);
#191=ORIENTED_EDGE('',*,*,#145,.F.);
#192=ORIENTED_EDGE('',*,*,#144,.F.);
#193=ORIENTED_EDGE('',*,*,#143,.T.);
#194=ORIENTED_EDGE('',*,*,#146,.F.);
#195=ORIENTED_EDGE('',*,*,#147,.F.);
#196=ORIENTED_EDGE('',*,*,#148,.T.);
#197=ORIENTED_EDGE('',*,*,#149,.F.);
#198=ORIENTED_EDGE('',*,*,#148,.F.);
#199=ORIENTED_EDGE('',*,*,#150,.F.);
#200=ORIENTED_EDGE('',*,*,#151,.F.);
#201=ORIENTED_EDGE('',*,*,#152,.T.);
#202=ORIENTED_EDGE('',*,*,#153,.F.);
#203=ORIENTED_EDGE('',*,*,#152,.F.);
#204=ORIENTED_EDGE('',*,*,#154,.F.);
#205=ORIENTED_EDGE('',*,*,#155,.F.);
#206=ORIENTED_EDGE('',*,*,#156,.F.);
#207=ORIENTED_EDGE('',*,*,#157,.F.);
#208=ORIENTED_EDGE('',*,*,#155,.T.);
#209=ORIENTED_EDGE('',*,*,#158,.T.);
#210=ORIENTED_EDGE('',*,*,#159,.T.);
#211=ORIENTED_EDGE('',*,*,#160,.T.);
#212=ORIENTED_EDGE('',*,*,#154,.T.);
#213=ORIENTED_EDGE('',*,*,#161,.F.);
#214=ORIENTED_EDGE('',*,*,#162,.T.);
#215=ORIENTED_EDGE('',*,*,#158,.F.);
#216=ORIENTED_EDGE('',*,*,#140,.T.);
#217=ORIENTED_EDGE('',*,*,#145,.T.);
#218=ORIENTED_EDGE('',*,*,#146,.T.);
#219=ORIENTED_EDGE('',*,*,#147,.T.);
#220=ORIENTED_EDGE('',*,*,#150,.T.);
#221=ORIENTED_EDGE('',*,*,#151,.T.);
#222=ORIENTED_EDGE('',*,*,#162,.F.);
#223=ORIENTED_EDGE('',*,*,#163,.F.);
#224=ORIENTED_EDGE('',*,*,#164,.F.);
#225=ORIENTED_EDGE('',*,*,#159,.F.);
#226=ORIENTED_EDGE('',*,*,#157,.T.);
#227=ORIENTED_EDGE('',*,*,#165,.T.);
#228=ORIENTED_EDGE('',*,*,#163,.T.);
#229=ORIENTED_EDGE('',*,*,#161,.T.);
#230=ORIENTED_EDGE('',*,*,#156,.T.);
#231=ORIENTED_EDGE('',*,*,#160,.F.);
#232=ORIENTED_EDGE('',*,*,#164,.T.);
#233=ORIENTED_EDGE('',*,*,#165,.F.);
#234=ORIENTED_EDGE('',*,*,#149,.T.);
#235=ORIENTED_EDGE('',*,*,#153,.T.);
#236=CYLINDRICAL_SURFACE('',#276,7.);
#237=CYLINDRICAL_SURFACE('',#285,7.);
#238=CYLINDRICAL_SURFACE('',#291,7.);
#239=CYLINDRICAL_SURFACE('',#293,4.5);
#240=CYLINDRICAL_SURFACE('',#297,4.5);
#241=CYLINDRICAL_SURFACE('',#301,118.497058823529);
#242=CYLINDRICAL_SURFACE('',#307,118.497058823529);
#243=ADVANCED_FACE('',(#27),#236,.T.);
#244=ADVANCED_FACE('',(#28),#25,.T.);
#245=ADVANCED_FACE('',(#29),#237,.T.);
#246=ADVANCED_FACE('',(#30),#26,.T.);
#247=ADVANCED_FACE('',(#31),#238,.T.);
#248=ADVANCED_FACE('',(#32),#239,.F.);
#249=ADVANCED_FACE('',(#33),#240,.F.);
#250=ADVANCED_FACE('',(#34),#241,.T.);
#251=ADVANCED_FACE('',(#35),#21,.T.);
#252=ADVANCED_FACE('',(#36,#15,#16,#17,#18),#22,.T.);
#253=ADVANCED_FACE('',(#37),#242,.T.);
#254=ADVANCED_FACE('',(#38),#23,.T.);
#255=ADVANCED_FACE('',(#39,#19,#20),#24,.F.);
#256=CLOSED_SHELL('',(#243,#244,#245,#246,#247,#248,#249,#250,#251,#252,
#253,#254,#255));
#257=DERIVED_UNIT_ELEMENT(#259,1.);
#258=DERIVED_UNIT_ELEMENT(#474,3.);
#259=(
MASS_UNIT()
NAMED_UNIT(*)
SI_UNIT($,.GRAM.)
);
#260=DERIVED_UNIT((#257,#258));
#261=MEASURE_REPRESENTATION_ITEM('density measure',
POSITIVE_RATIO_MEASURE(7.85),#260);
#262=PROPERTY_DEFINITION_REPRESENTATION(#267,#264);
#263=PROPERTY_DEFINITION_REPRESENTATION(#268,#265);
#264=REPRESENTATION('material name',(#266),#471);
#265=REPRESENTATION('density',(#261),#471);
#266=DESCRIPTIVE_REPRESENTATION_ITEM('Acier C9D galvanis\X\E9',
'Acier C9D galvanis\X\E9');
#267=PROPERTY_DEFINITION('material property','material name',#481);
#268=PROPERTY_DEFINITION('material property','density of part',#481);
#269=DATE_TIME_ROLE('creation_date');
#270=APPLIED_DATE_AND_TIME_ASSIGNMENT(#271,#269,(#481));
#271=DATE_AND_TIME(#272,#273);
#272=CALENDAR_DATE(2003,15,4);
#273=LOCAL_TIME(8,57,16.,#274);
#274=COORDINATED_UNIVERSAL_TIME_OFFSET(0,0,.BEHIND.);
#275=AXIS2_PLACEMENT_3D('placement',#396,#311,#312);
#276=AXIS2_PLACEMENT_3D('',#397,#313,#314);
#277=AXIS2_PLACEMENT_3D('',#400,#315,#316);
#278=AXIS2_PLACEMENT_3D('',#404,#318,#319);
#279=AXIS2_PLACEMENT_3D('',#405,#320,#321);
#280=AXIS2_PLACEMENT_3D('',#406,#322,#323);
#281=AXIS2_PLACEMENT_3D('',#407,#324,#325);
#282=AXIS2_PLACEMENT_3D('',#409,#326,#327);
#283=AXIS2_PLACEMENT_3D('',#411,#328,#329);
#284=AXIS2_PLACEMENT_3D('',#412,#330,#331);
#285=AXIS2_PLACEMENT_3D('',#413,#332,#333);
#286=AXIS2_PLACEMENT_3D('',#416,#335,#336);
#287=AXIS2_PLACEMENT_3D('',#417,#337,#338);
#288=AXIS2_PLACEMENT_3D('',#419,#339,#340);
#289=AXIS2_PLACEMENT_3D('',#421,#341,#342);
#290=AXIS2_PLACEMENT_3D('',#422,#343,#344);
#291=AXIS2_PLACEMENT_3D('',#423,#345,#346);
#292=AXIS2_PLACEMENT_3D('',#426,#348,#349);
#293=AXIS2_PLACEMENT_3D('',#427,#350,#351);
#294=AXIS2_PLACEMENT_3D('',#430,#352,#353);
#295=AXIS2_PLACEMENT_3D('',#431,#354,#355);
#296=AXIS2_PLACEMENT_3D('',#434,#357,#358);
#297=AXIS2_PLACEMENT_3D('',#435,#359,#360);
#298=AXIS2_PLACEMENT_3D('',#438,#361,#362);
#299=AXIS2_PLACEMENT_3D('',#439,#363,#364);
#300=AXIS2_PLACEMENT_3D('',#442,#366,#367);
#301=AXIS2_PLACEMENT_3D('',#443,#368,#369);
#302=AXIS2_PLACEMENT_3D('',#446,#370,#371);
#303=AXIS2_PLACEMENT_3D('',#450,#373,#374);
#304=AXIS2_PLACEMENT_3D('',#452,#376,#377);
#305=AXIS2_PLACEMENT_3D('',#458,#381,#382);
#306=AXIS2_PLACEMENT_3D('',#461,#384,#385);
#307=AXIS2_PLACEMENT_3D('',#462,#386,#387);
#308=AXIS2_PLACEMENT_3D('',#465,#389,#390);
#309=AXIS2_PLACEMENT_3D('',#466,#391,#392);
#310=AXIS2_PLACEMENT_3D('',#468,#394,#395);
#311=DIRECTION('axis',(0.,0.,1.));
#312=DIRECTION('refdir',(1.,0.,0.));
#313=DIRECTION('center_axis',(1.,2.1984614349013E-16,0.));
#314=DIRECTION('ref_axis',(0.,0.,1.));
#315=DIRECTION('center_axis',(-1.,2.22042284104633E-16,0.));
#316=DIRECTION('ref_axis',(4.93027759304027E-32,2.22042284104633E-16,1.));
#317=DIRECTION('',(-1.,-2.1984614349013E-16,0.));
#318=DIRECTION('center_axis',(-1.,-2.22042284104633E-16,0.));
#319=DIRECTION('ref_axis',(-4.93027759304027E-32,2.22042284104633E-16,1.));
#320=DIRECTION('center_axis',(-1.,-2.22042284104633E-16,0.));
#321=DIRECTION('ref_axis',(-4.93027759304027E-32,2.22042284104633E-16,1.));
#322=DIRECTION('center_axis',(-1.,2.22042284104633E-16,0.));
#323=DIRECTION('ref_axis',(4.93027759304027E-32,2.22042284104633E-16,1.));
#324=DIRECTION('center_axis',(1.40980701539702E-16,1.,0.));
#325=DIRECTION('ref_axis',(0.,0.,1.));
#326=DIRECTION('center_axis',(1.40980701539702E-16,1.,0.));
#327=DIRECTION('ref_axis',(0.,0.,1.));
#328=DIRECTION('center_axis',(0.,0.,1.));
#329=DIRECTION('ref_axis',(1.,0.,0.));
#330=DIRECTION('center_axis',(0.,0.,1.));
#331=DIRECTION('ref_axis',(1.,0.,0.));
#332=DIRECTION('center_axis',(0.,0.,-1.));
#333=DIRECTION('ref_axis',(1.,0.,0.));
#334=DIRECTION('',(0.,0.,-1.));
#335=DIRECTION('center_axis',(0.,0.,-1.));
#336=DIRECTION('ref_axis',(1.,0.,0.));
#337=DIRECTION('center_axis',(-1.40980701539702E-16,1.,0.));
#338=DIRECTION('ref_axis',(0.,0.,1.));
#339=DIRECTION('center_axis',(1.40980701539702E-16,-1.,0.));
#340=DIRECTION('ref_axis',(0.,0.,1.));
#341=DIRECTION('center_axis',(0.,0.,-1.));
#342=DIRECTION('ref_axis',(-1.,0.,0.));
#343=DIRECTION('center_axis',(0.,0.,-1.));
#344=DIRECTION('ref_axis',(-1.,0.,0.));
#345=DIRECTION('center_axis',(0.,0.,1.));
#346=DIRECTION('ref_axis',(-1.,0.,0.));
#347=DIRECTION('',(0.,0.,-1.));
#348=DIRECTION('center_axis',(0.,0.,-1.));
#349=DIRECTION('ref_axis',(-1.,0.,0.));
#350=DIRECTION('center_axis',(0.,0.,1.));
#351=DIRECTION('ref_axis',(1.,0.,0.));
#352=DIRECTION('center_axis',(0.,0.,-1.));
#353=DIRECTION('ref_axis',(1.,0.,0.));
#354=DIRECTION('center_axis',(0.,0.,-1.));
#355=DIRECTION('ref_axis',(1.,0.,0.));
#356=DIRECTION('',(0.,0.,-1.));
#357=DIRECTION('center_axis',(0.,0.,1.));
#358=DIRECTION('ref_axis',(1.,0.,0.));
#359=DIRECTION('center_axis',(0.,0.,1.));
#360=DIRECTION('ref_axis',(1.,0.,0.));
#361=DIRECTION('center_axis',(0.,0.,-1.));
#362=DIRECTION('ref_axis',(1.,0.,0.));
#363=DIRECTION('center_axis',(0.,0.,-1.));
#364=DIRECTION('ref_axis',(1.,0.,0.));
#365=DIRECTION('',(0.,0.,-1.));
#366=DIRECTION('center_axis',(0.,0.,1.));
#367=DIRECTION('ref_axis',(1.,0.,0.));
#368=DIRECTION('center_axis',(0.,0.,1.));
#369=DIRECTION('ref_axis',(0.985653652361687,0.168780560450744,0.));
#370=DIRECTION('center_axis',(0.,0.,1.));
#371=DIRECTION('ref_axis',(0.985653652361687,0.168780560450744,0.));
#372=DIRECTION('',(0.,0.,1.));
#373=DIRECTION('center_axis',(0.,0.,-1.));
#374=DIRECTION('ref_axis',(0.985653652361687,0.168780560450744,0.));
#375=DIRECTION('',(0.,0.,-1.));
#376=DIRECTION('center_axis',(0.,-1.,0.));
#377=DIRECTION('ref_axis',(0.,0.,-1.));
#378=DIRECTION('',(-1.,0.,0.));
#379=DIRECTION('',(0.,0.,-1.));
#380=DIRECTION('',(1.,0.,0.));
#381=DIRECTION('center_axis',(0.,0.,1.));
#382=DIRECTION('ref_axis',(1.,0.,0.));
#383=DIRECTION('',(1.,1.34064667124547E-16,0.));
#384=DIRECTION('center_axis',(0.,0.,1.));
#385=DIRECTION('ref_axis',(-0.985653652361687,0.168780560450744,0.));
#386=DIRECTION('center_axis',(0.,0.,-1.));
#387=DIRECTION('ref_axis',(-0.985653652361687,0.168780560450744,0.));
#388=DIRECTION('',(0.,0.,1.));
#389=DIRECTION('center_axis',(0.,0.,-1.));
#390=DIRECTION('ref_axis',(-0.985653652361687,0.168780560450744,0.));
#391=DIRECTION('center_axis',(-1.34064667124547E-16,1.,0.));
#392=DIRECTION('ref_axis',(0.,0.,1.));
#393=DIRECTION('',(-1.,-1.34064667124547E-16,0.));
#394=DIRECTION('center_axis',(0.,0.,1.));
#395=DIRECTION('ref_axis',(1.,0.,0.));
#396=CARTESIAN_POINT('',(0.,0.,0.));
#397=CARTESIAN_POINT('Origin',(82.,20.,62.));
#398=CARTESIAN_POINT('',(183.,13.,62.));
#399=CARTESIAN_POINT('',(183.,20.,55.));
#400=CARTESIAN_POINT('Origin',(183.,20.,62.));
#401=CARTESIAN_POINT('',(82.,20.,55.));
#402=CARTESIAN_POINT('',(82.,20.,55.));
#403=CARTESIAN_POINT('',(82.,13.,62.));
#404=CARTESIAN_POINT('Origin',(82.,20.,62.));
#405=CARTESIAN_POINT('Origin',(82.,20.,62.));
#406=CARTESIAN_POINT('Origin',(183.,20.,62.));
#407=CARTESIAN_POINT('Origin',(183.,20.,35.));
#408=CARTESIAN_POINT('',(203.,20.,35.));
#409=CARTESIAN_POINT('Origin',(183.,20.,35.));
#410=CARTESIAN_POINT('',(210.,13.,35.));
#411=CARTESIAN_POINT('Origin',(210.,20.,35.));
#412=CARTESIAN_POINT('Origin',(210.,20.,35.));
#413=CARTESIAN_POINT('Origin',(210.,20.,5.));
#414=CARTESIAN_POINT('',(203.,20.,5.));
#415=CARTESIAN_POINT('',(203.,20.,5.));
#416=CARTESIAN_POINT('Origin',(210.,20.,5.));
#417=CARTESIAN_POINT('Origin',(82.,20.,35.));
#418=CARTESIAN_POINT('',(62.,20.,35.));
#419=CARTESIAN_POINT('Origin',(82.,20.,35.));
#420=CARTESIAN_POINT('',(55.,13.,35.));
#421=CARTESIAN_POINT('Origin',(55.,20.,35.));
#422=CARTESIAN_POINT('Origin',(55.,20.,35.));
#423=CARTESIAN_POINT('Origin',(55.,20.,5.));
#424=CARTESIAN_POINT('',(62.,20.,5.));
#425=CARTESIAN_POINT('',(62.,20.,5.));
#426=CARTESIAN_POINT('Origin',(55.,20.,5.));
#427=CARTESIAN_POINT('Origin',(20.,20.,1.));
#428=CARTESIAN_POINT('',(24.5,20.,5.));
#429=CARTESIAN_POINT('',(15.5,20.,5.));
#430=CARTESIAN_POINT('Origin',(20.,20.,5.));
#431=CARTESIAN_POINT('Origin',(20.,20.,5.));
#432=CARTESIAN_POINT('',(15.5,20.,0.));
#433=CARTESIAN_POINT('',(15.5,20.,1.));
#434=CARTESIAN_POINT('Origin',(20.,20.,0.));
#435=CARTESIAN_POINT('Origin',(245.,20.,1.));
#436=CARTESIAN_POINT('',(249.5,20.,5.));
#437=CARTESIAN_POINT('',(240.5,20.,5.));
#438=CARTESIAN_POINT('Origin',(245.,20.,5.));
#439=CARTESIAN_POINT('Origin',(245.,20.,5.));
#440=CARTESIAN_POINT('',(240.5,20.,0.));
#441=CARTESIAN_POINT('',(240.5,20.,1.));
#442=CARTESIAN_POINT('Origin',(245.,20.,0.));
#443=CARTESIAN_POINT('Origin',(146.502941176471,20.,5.));
#444=CARTESIAN_POINT('',(263.3,0.,5.));
#445=CARTESIAN_POINT('',(263.3,40.,5.));
#446=CARTESIAN_POINT('Origin',(146.502941176471,20.,5.));
#447=CARTESIAN_POINT('',(263.3,0.,0.));
#448=CARTESIAN_POINT('',(263.3,0.,5.));
#449=CARTESIAN_POINT('',(263.3,40.,0.));
#450=CARTESIAN_POINT('Origin',(146.502941176471,20.,0.));
#451=CARTESIAN_POINT('',(263.3,40.,5.));
#452=CARTESIAN_POINT('Origin',(265.,0.,0.));
#453=CARTESIAN_POINT('',(1.7,0.,5.));
#454=CARTESIAN_POINT('',(0.,0.,5.));
#455=CARTESIAN_POINT('',(1.7,0.,0.));
#456=CARTESIAN_POINT('',(1.70000000000005,0.,5.));
#457=CARTESIAN_POINT('',(0.,0.,0.));
#458=CARTESIAN_POINT('Origin',(132.5,20.,5.));
#459=CARTESIAN_POINT('',(1.70000000000001,40.,5.));
#460=CARTESIAN_POINT('',(265.,40.,5.));
#461=CARTESIAN_POINT('Origin',(118.497058823529,20.,5.));
#462=CARTESIAN_POINT('Origin',(118.497058823529,20.,5.));
#463=CARTESIAN_POINT('',(1.70000000000001,40.,0.));
#464=CARTESIAN_POINT('',(1.70000000000005,40.,5.));
#465=CARTESIAN_POINT('Origin',(118.497058823529,20.,0.));
#466=CARTESIAN_POINT('Origin',(-1.22124532708767E-14,40.,0.));
#467=CARTESIAN_POINT('',(265.,40.,0.));
#468=CARTESIAN_POINT('Origin',(132.5,20.,0.));
#469=UNCERTAINTY_MEASURE_WITH_UNIT(LENGTH_MEASURE(0.01),#473,
'DISTANCE_ACCURACY_VALUE',
'Maximum model space distance between geometric entities at asserted c
onnectivities');
#470=UNCERTAINTY_MEASURE_WITH_UNIT(LENGTH_MEASURE(0.01),#473,
'DISTANCE_ACCURACY_VALUE',
'Maximum model space distance between geometric entities at asserted c
onnectivities');
#471=(
GEOMETRIC_REPRESENTATION_CONTEXT(3)
GLOBAL_UNCERTAINTY_ASSIGNED_CONTEXT((#469))
GLOBAL_UNIT_ASSIGNED_CONTEXT((#473,#475,#476))
REPRESENTATION_CONTEXT('','3D')
);
#472=(
GEOMETRIC_REPRESENTATION_CONTEXT(3)
GLOBAL_UNCERTAINTY_ASSIGNED_CONTEXT((#470))
GLOBAL_UNIT_ASSIGNED_CONTEXT((#473,#475,#476))
REPRESENTATION_CONTEXT('','3D')
);
#473=(
LENGTH_UNIT()
NAMED_UNIT(*)
SI_UNIT(.MILLI.,.METRE.)
);
#474=(
LENGTH_UNIT()
NAMED_UNIT(*)
SI_UNIT(.CENTI.,.METRE.)
);
#475=(
NAMED_UNIT(*)
PLANE_ANGLE_UNIT()
SI_UNIT($,.RADIAN.)
);
#476=(
NAMED_UNIT(*)
SI_UNIT($,.STERADIAN.)
SOLID_ANGLE_UNIT()
);
#477=SHAPE_DEFINITION_REPRESENTATION(#478,#479);
#478=PRODUCT_DEFINITION_SHAPE('',$,#481);
#479=SHAPE_REPRESENTATION('',(#275),#471);
#480=PRODUCT_DEFINITION_CONTEXT('part definition',#485,'design');
#481=PRODUCT_DEFINITION('poign\X\E9e 1297','RD-6B',#482,#480);
#482=PRODUCT_DEFINITION_FORMATION('',$,#487);
#483=PRODUCT_RELATED_PRODUCT_CATEGORY('RD-6B','RD-6B',(#487));
#484=APPLICATION_PROTOCOL_DEFINITION('international standard',
'automotive_design',2009,#485);
#485=APPLICATION_CONTEXT(
'Core Data for Automotive Mechanical Design Process');
#486=PRODUCT_CONTEXT('part definition',#485,'mechanical');
#487=PRODUCT('poign\X\E9e 1297','RD-6B',$,(#486));
#488=PRESENTATION_STYLE_ASSIGNMENT((#489));
#489=SURFACE_STYLE_USAGE(.BOTH.,#492);
#490=SURFACE_STYLE_RENDERING_WITH_PROPERTIES($,#496,(#491));
#491=SURFACE_STYLE_TRANSPARENT(0.);
#492=SURFACE_SIDE_STYLE('',(#493,#490));
#493=SURFACE_STYLE_FILL_AREA(#494);
#494=FILL_AREA_STYLE('',(#495));
#495=FILL_AREA_STYLE_COLOUR('',#496);
#496=COLOUR_RGB('',0.0196078431372549,0.0196078431372549,0.0196078431372549);
ENDSEC;
END-ISO-10303-21;
