ISO-10303-21;
HEADER;
/* Generated by software containing ST-Developer
 * from STEP Tools, Inc. (www.steptools.com) 
 */

FILE_DESCRIPTION(
/* description */ (''),
/* implementation_level */ '2;1');

FILE_NAME(
/* name */ 'R:\\BE\\Transfert-temporaire\\GJ10530RP.stp',
/* time_stamp */ '2019-08-05T16:25:21+02:00',
/* author */ ('DOMINIQUE'),
/* organization */ (''),
/* preprocessor_version */ 'ST-DEVELOPER v17.2',
/* originating_system */ 'Autodesk Inventor 2019',
/* authorisation */ '');

FILE_SCHEMA (('AUTOMOTIVE_DESIGN { 1 0 10303 214 3 1 1 }'));
ENDSEC;

DATA;
#10=MECHANICAL_DESIGN_GEOMETRIC_PRESENTATION_REPRESENTATION('',(#23,#24),
#544);
#11=ITEM_DEFINED_TRANSFORMATION($,$,#318,#359);
#12=ITEM_DEFINED_TRANSFORMATION($,$,#341,#360);
#13=(
REPRESENTATION_RELATIONSHIP($,$,#558,#557)
REPRESENTATION_RELATIONSHIP_WITH_TRANSFORMATION(#11)
SHAPE_REPRESENTATION_RELATIONSHIP()
);
#14=(
REPRESENTATION_RELATIONSHIP($,$,#559,#557)
REPRESENTATION_RELATIONSHIP_WITH_TRANSFORMATION(#12)
SHAPE_REPRESENTATION_RELATIONSHIP()
);
#15=CONTEXT_DEPENDENT_SHAPE_REPRESENTATION(#13,#555);
#16=CONTEXT_DEPENDENT_SHAPE_REPRESENTATION(#14,#556);
#17=NEXT_ASSEMBLY_USAGE_OCCURRENCE('22858:1','22858:1','22858:1',#561,#562,
'22858:1');
#18=NEXT_ASSEMBLY_USAGE_OCCURRENCE('23964:1','23964:1','23964:1',#561,#563,
'23964:1');
#19=SHAPE_REPRESENTATION_RELATIONSHIP('SRR','None',#558,#21);
#20=SHAPE_REPRESENTATION_RELATIONSHIP('SRR','None',#559,#22);
#21=ADVANCED_BREP_SHAPE_REPRESENTATION('',(#25),#542);
#22=ADVANCED_BREP_SHAPE_REPRESENTATION('',(#26),#543);
#23=STYLED_ITEM('',(#299),#25);
#24=STYLED_ITEM('',(#300),#26);
#25=MANIFOLD_SOLID_BREP('Solide1',#268);
#26=MANIFOLD_SOLID_BREP('Solide1',#269);
#27=FACE_BOUND('',#62,.T.);
#28=FACE_BOUND('',#68,.T.);
#29=FACE_BOUND('',#71,.T.);
#30=FACE_BOUND('',#73,.T.);
#31=PLANE('',#325);
#32=PLANE('',#340);
#33=PLANE('',#345);
#34=PLANE('',#347);
#35=PLANE('',#355);
#36=PLANE('',#358);
#37=CYLINDRICAL_SURFACE('',#323,4.188);
#38=CYLINDRICAL_SURFACE('',#331,9.5);
#39=CYLINDRICAL_SURFACE('',#342,4.5);
#40=CYLINDRICAL_SURFACE('',#349,5.);
#41=CYLINDRICAL_SURFACE('',#354,5.);
#42=FACE_OUTER_BOUND('',#59,.T.);
#43=FACE_OUTER_BOUND('',#60,.T.);
#44=FACE_OUTER_BOUND('',#61,.T.);
#45=FACE_OUTER_BOUND('',#63,.T.);
#46=FACE_OUTER_BOUND('',#64,.T.);
#47=FACE_OUTER_BOUND('',#65,.T.);
#48=FACE_OUTER_BOUND('',#66,.T.);
#49=FACE_OUTER_BOUND('',#67,.T.);
#50=FACE_OUTER_BOUND('',#69,.T.);
#51=FACE_OUTER_BOUND('',#70,.T.);
#52=FACE_OUTER_BOUND('',#72,.T.);
#53=FACE_OUTER_BOUND('',#74,.T.);
#54=FACE_OUTER_BOUND('',#75,.T.);
#55=FACE_OUTER_BOUND('',#76,.T.);
#56=FACE_OUTER_BOUND('',#77,.T.);
#57=FACE_OUTER_BOUND('',#78,.T.);
#58=FACE_OUTER_BOUND('',#79,.T.);
#59=EDGE_LOOP('',(#179,#180,#181,#182,#183));
#60=EDGE_LOOP('',(#184,#185,#186,#187,#188));
#61=EDGE_LOOP('',(#189,#190));
#62=EDGE_LOOP('',(#191));
#63=EDGE_LOOP('',(#192,#193,#194,#195,#196,#197));
#64=EDGE_LOOP('',(#198,#199,#200,#201,#202,#203));
#65=EDGE_LOOP('',(#204,#205,#206,#207,#208,#209));
#66=EDGE_LOOP('',(#210,#211,#212,#213,#214,#215));
#67=EDGE_LOOP('',(#216,#217));
#68=EDGE_LOOP('',(#218));
#69=EDGE_LOOP('',(#219,#220,#221,#222));
#70=EDGE_LOOP('',(#223));
#71=EDGE_LOOP('',(#224));
#72=EDGE_LOOP('',(#225));
#73=EDGE_LOOP('',(#226));
#74=EDGE_LOOP('',(#227,#228,#229,#230));
#75=EDGE_LOOP('',(#231,#232,#233,#234));
#76=EDGE_LOOP('',(#235,#236,#237,#238));
#77=EDGE_LOOP('',(#239));
#78=EDGE_LOOP('',(#240,#241,#242,#243));
#79=EDGE_LOOP('',(#244));
#80=LINE('',#466,#91);
#81=LINE('',#472,#92);
#82=LINE('',#484,#93);
#83=LINE('',#490,#94);
#84=LINE('',#496,#95);
#85=LINE('',#502,#96);
#86=LINE('',#509,#97);
#87=LINE('',#520,#98);
#88=LINE('',#525,#99);
#89=LINE('',#528,#100);
#90=LINE('',#533,#101);
#91=VECTOR('',#369,4.563);
#92=VECTOR('',#376,4.188);
#93=VECTOR('',#391,8.5);
#94=VECTOR('',#398,9.5);
#95=VECTOR('',#405,9.11838018493786);
#96=VECTOR('',#412,8.24338018493786);
#97=VECTOR('',#421,4.5);
#98=VECTOR('',#436,5.);
#99=VECTOR('',#441,4.625);
#100=VECTOR('',#446,5.);
#101=VECTOR('',#453,4.625);
#102=CIRCLE('',#320,4.938);
#103=CIRCLE('',#321,4.188);
#104=CIRCLE('',#322,4.188);
#105=CIRCLE('',#324,4.188);
#106=CIRCLE('',#326,7.5);
#107=CIRCLE('',#327,7.5);
#108=CIRCLE('',#329,9.5);
#109=CIRCLE('',#330,9.5);
#110=CIRCLE('',#332,9.5);
#111=CIRCLE('',#333,9.5);
#112=CIRCLE('',#335,8.73676036987573);
#113=CIRCLE('',#336,8.73676036987573);
#114=CIRCLE('',#338,7.75);
#115=CIRCLE('',#339,7.75);
#116=CIRCLE('',#343,4.5);
#117=CIRCLE('',#344,4.5);
#118=CIRCLE('',#346,5.);
#119=CIRCLE('',#348,5.);
#120=CIRCLE('',#350,5.);
#121=CIRCLE('',#352,4.25);
#122=CIRCLE('',#353,5.);
#123=CIRCLE('',#357,4.25);
#124=VERTEX_POINT('',#463);
#125=VERTEX_POINT('',#465);
#126=VERTEX_POINT('',#467);
#127=VERTEX_POINT('',#471);
#128=VERTEX_POINT('',#475);
#129=VERTEX_POINT('',#476);
#130=VERTEX_POINT('',#480);
#131=VERTEX_POINT('',#481);
#132=VERTEX_POINT('',#486);
#133=VERTEX_POINT('',#487);
#134=VERTEX_POINT('',#492);
#135=VERTEX_POINT('',#493);
#136=VERTEX_POINT('',#498);
#137=VERTEX_POINT('',#499);
#138=VERTEX_POINT('',#506);
#139=VERTEX_POINT('',#508);
#140=VERTEX_POINT('',#512);
#141=VERTEX_POINT('',#515);
#142=VERTEX_POINT('',#518);
#143=VERTEX_POINT('',#522);
#144=VERTEX_POINT('',#524);
#145=VERTEX_POINT('',#531);
#146=EDGE_CURVE('',#124,#124,#102,.T.);
#147=EDGE_CURVE('',#124,#125,#80,.T.);
#148=EDGE_CURVE('',#125,#126,#103,.T.);
#149=EDGE_CURVE('',#126,#125,#104,.T.);
#150=EDGE_CURVE('',#126,#127,#81,.T.);
#151=EDGE_CURVE('',#127,#127,#105,.T.);
#152=EDGE_CURVE('',#128,#129,#106,.T.);
#153=EDGE_CURVE('',#129,#128,#107,.T.);
#154=EDGE_CURVE('',#130,#131,#108,.T.);
#155=EDGE_CURVE('',#131,#130,#109,.T.);
#156=EDGE_CURVE('',#131,#129,#82,.T.);
#157=EDGE_CURVE('',#132,#133,#110,.T.);
#158=EDGE_CURVE('',#133,#132,#111,.T.);
#159=EDGE_CURVE('',#133,#131,#83,.T.);
#160=EDGE_CURVE('',#134,#135,#112,.T.);
#161=EDGE_CURVE('',#135,#134,#113,.T.);
#162=EDGE_CURVE('',#135,#133,#84,.T.);
#163=EDGE_CURVE('',#136,#137,#114,.T.);
#164=EDGE_CURVE('',#137,#136,#115,.T.);
#165=EDGE_CURVE('',#137,#135,#85,.T.);
#166=EDGE_CURVE('',#138,#138,#116,.T.);
#167=EDGE_CURVE('',#138,#139,#86,.T.);
#168=EDGE_CURVE('',#139,#139,#117,.T.);
#169=EDGE_CURVE('',#140,#140,#118,.T.);
#170=EDGE_CURVE('',#141,#141,#119,.T.);
#171=EDGE_CURVE('',#142,#142,#120,.T.);
#172=EDGE_CURVE('',#142,#141,#87,.T.);
#173=EDGE_CURVE('',#143,#143,#121,.T.);
#174=EDGE_CURVE('',#143,#144,#88,.T.);
#175=EDGE_CURVE('',#144,#144,#122,.T.);
#176=EDGE_CURVE('',#140,#144,#89,.T.);
#177=EDGE_CURVE('',#145,#145,#123,.T.);
#178=EDGE_CURVE('',#145,#142,#90,.T.);
#179=ORIENTED_EDGE('',*,*,#146,.T.);
#180=ORIENTED_EDGE('',*,*,#147,.T.);
#181=ORIENTED_EDGE('',*,*,#148,.T.);
#182=ORIENTED_EDGE('',*,*,#149,.T.);
#183=ORIENTED_EDGE('',*,*,#147,.F.);
#184=ORIENTED_EDGE('',*,*,#148,.F.);
#185=ORIENTED_EDGE('',*,*,#149,.F.);
#186=ORIENTED_EDGE('',*,*,#150,.T.);
#187=ORIENTED_EDGE('',*,*,#151,.F.);
#188=ORIENTED_EDGE('',*,*,#150,.F.);
#189=ORIENTED_EDGE('',*,*,#152,.F.);
#190=ORIENTED_EDGE('',*,*,#153,.F.);
#191=ORIENTED_EDGE('',*,*,#146,.F.);
#192=ORIENTED_EDGE('',*,*,#154,.F.);
#193=ORIENTED_EDGE('',*,*,#155,.F.);
#194=ORIENTED_EDGE('',*,*,#156,.T.);
#195=ORIENTED_EDGE('',*,*,#153,.T.);
#196=ORIENTED_EDGE('',*,*,#152,.T.);
#197=ORIENTED_EDGE('',*,*,#156,.F.);
#198=ORIENTED_EDGE('',*,*,#157,.F.);
#199=ORIENTED_EDGE('',*,*,#158,.F.);
#200=ORIENTED_EDGE('',*,*,#159,.T.);
#201=ORIENTED_EDGE('',*,*,#155,.T.);
#202=ORIENTED_EDGE('',*,*,#154,.T.);
#203=ORIENTED_EDGE('',*,*,#159,.F.);
#204=ORIENTED_EDGE('',*,*,#160,.F.);
#205=ORIENTED_EDGE('',*,*,#161,.F.);
#206=ORIENTED_EDGE('',*,*,#162,.T.);
#207=ORIENTED_EDGE('',*,*,#158,.T.);
#208=ORIENTED_EDGE('',*,*,#157,.T.);
#209=ORIENTED_EDGE('',*,*,#162,.F.);
#210=ORIENTED_EDGE('',*,*,#163,.F.);
#211=ORIENTED_EDGE('',*,*,#164,.F.);
#212=ORIENTED_EDGE('',*,*,#165,.T.);
#213=ORIENTED_EDGE('',*,*,#161,.T.);
#214=ORIENTED_EDGE('',*,*,#160,.T.);
#215=ORIENTED_EDGE('',*,*,#165,.F.);
#216=ORIENTED_EDGE('',*,*,#163,.T.);
#217=ORIENTED_EDGE('',*,*,#164,.T.);
#218=ORIENTED_EDGE('',*,*,#151,.T.);
#219=ORIENTED_EDGE('',*,*,#166,.T.);
#220=ORIENTED_EDGE('',*,*,#167,.T.);
#221=ORIENTED_EDGE('',*,*,#168,.T.);
#222=ORIENTED_EDGE('',*,*,#167,.F.);
#223=ORIENTED_EDGE('',*,*,#169,.F.);
#224=ORIENTED_EDGE('',*,*,#166,.F.);
#225=ORIENTED_EDGE('',*,*,#170,.F.);
#226=ORIENTED_EDGE('',*,*,#168,.F.);
#227=ORIENTED_EDGE('',*,*,#171,.F.);
#228=ORIENTED_EDGE('',*,*,#172,.T.);
#229=ORIENTED_EDGE('',*,*,#170,.T.);
#230=ORIENTED_EDGE('',*,*,#172,.F.);
#231=ORIENTED_EDGE('',*,*,#173,.T.);
#232=ORIENTED_EDGE('',*,*,#174,.T.);
#233=ORIENTED_EDGE('',*,*,#175,.T.);
#234=ORIENTED_EDGE('',*,*,#174,.F.);
#235=ORIENTED_EDGE('',*,*,#169,.T.);
#236=ORIENTED_EDGE('',*,*,#176,.T.);
#237=ORIENTED_EDGE('',*,*,#175,.F.);
#238=ORIENTED_EDGE('',*,*,#176,.F.);
#239=ORIENTED_EDGE('',*,*,#173,.F.);
#240=ORIENTED_EDGE('',*,*,#177,.T.);
#241=ORIENTED_EDGE('',*,*,#178,.T.);
#242=ORIENTED_EDGE('',*,*,#171,.T.);
#243=ORIENTED_EDGE('',*,*,#178,.F.);
#244=ORIENTED_EDGE('',*,*,#177,.F.);
#245=CONICAL_SURFACE('',#319,4.563,0.785398163397447);
#246=CONICAL_SURFACE('',#328,8.5,0.785398163397448);
#247=CONICAL_SURFACE('',#334,9.11838018493786,0.209439510239319);
#248=CONICAL_SURFACE('',#337,8.24338018493786,0.610865238198015);
#249=CONICAL_SURFACE('',#351,4.625,0.78539816339743);
#250=CONICAL_SURFACE('',#356,4.625,0.78539816339743);
#251=ADVANCED_FACE('',(#42),#245,.F.);
#252=ADVANCED_FACE('',(#43),#37,.F.);
#253=ADVANCED_FACE('',(#44,#27),#31,.T.);
#254=ADVANCED_FACE('',(#45),#246,.T.);
#255=ADVANCED_FACE('',(#46),#38,.T.);
#256=ADVANCED_FACE('',(#47),#247,.T.);
#257=ADVANCED_FACE('',(#48),#248,.T.);
#258=ADVANCED_FACE('',(#49,#28),#32,.T.);
#259=ADVANCED_FACE('',(#50),#39,.T.);
#260=ADVANCED_FACE('',(#51,#29),#33,.T.);
#261=ADVANCED_FACE('',(#52,#30),#34,.F.);
#262=ADVANCED_FACE('',(#53),#40,.T.);
#263=ADVANCED_FACE('',(#54),#249,.T.);
#264=ADVANCED_FACE('',(#55),#41,.T.);
#265=ADVANCED_FACE('',(#56),#35,.F.);
#266=ADVANCED_FACE('',(#57),#250,.T.);
#267=ADVANCED_FACE('',(#58),#36,.T.);
#268=CLOSED_SHELL('',(#251,#252,#253,#254,#255,#256,#257,#258));
#269=CLOSED_SHELL('',(#259,#260,#261,#262,#263,#264,#265,#266,#267));
#270=DERIVED_UNIT_ELEMENT(#274,1.);
#271=DERIVED_UNIT_ELEMENT(#546,3.);
#272=DERIVED_UNIT_ELEMENT(#274,1.);
#273=DERIVED_UNIT_ELEMENT(#546,3.);
#274=(
MASS_UNIT()
NAMED_UNIT(*)
SI_UNIT($,.GRAM.)
);
#275=DERIVED_UNIT((#270,#271));
#276=DERIVED_UNIT((#272,#273));
#277=MEASURE_REPRESENTATION_ITEM('density measure',
POSITIVE_RATIO_MEASURE(1.06),#275);
#278=MEASURE_REPRESENTATION_ITEM('density measure',
POSITIVE_RATIO_MEASURE(7.85),#276);
#279=PROPERTY_DEFINITION_REPRESENTATION(#289,#283);
#280=PROPERTY_DEFINITION_REPRESENTATION(#290,#284);
#281=PROPERTY_DEFINITION_REPRESENTATION(#291,#285);
#282=PROPERTY_DEFINITION_REPRESENTATION(#292,#286);
#283=REPRESENTATION('material name',(#287),#542);
#284=REPRESENTATION('density',(#277),#542);
#285=REPRESENTATION('material name',(#288),#543);
#286=REPRESENTATION('density',(#278),#543);
#287=DESCRIPTIVE_REPRESENTATION_ITEM('Plastique ABS','Plastique ABS');
#288=DESCRIPTIVE_REPRESENTATION_ITEM('Acier, galvanis\X\E9',
'Acier, galvanis\X\E9');
#289=PROPERTY_DEFINITION('material property','material name',#562);
#290=PROPERTY_DEFINITION('material property','density of part',#562);
#291=PROPERTY_DEFINITION('material property','material name',#563);
#292=PROPERTY_DEFINITION('material property','density of part',#563);
#293=DATE_TIME_ROLE('creation_date');
#294=APPLIED_DATE_AND_TIME_ASSIGNMENT(#295,#293,(#562));
#295=DATE_AND_TIME(#296,#297);
#296=CALENDAR_DATE(2016,31,8);
#297=LOCAL_TIME(10,10,25.,#298);
#298=COORDINATED_UNIVERSAL_TIME_OFFSET(0,0,.BEHIND.);
#299=PRESENTATION_STYLE_ASSIGNMENT((#301));
#300=PRESENTATION_STYLE_ASSIGNMENT((#302));
#301=SURFACE_STYLE_USAGE(.BOTH.,#307);
#302=SURFACE_STYLE_USAGE(.BOTH.,#308);
#303=SURFACE_STYLE_RENDERING_WITH_PROPERTIES($,#315,(#305));
#304=SURFACE_STYLE_RENDERING_WITH_PROPERTIES($,#316,(#306));
#305=SURFACE_STYLE_TRANSPARENT(0.);
#306=SURFACE_STYLE_TRANSPARENT(0.);
#307=SURFACE_SIDE_STYLE('',(#309,#303));
#308=SURFACE_SIDE_STYLE('',(#310,#304));
#309=SURFACE_STYLE_FILL_AREA(#311);
#310=SURFACE_STYLE_FILL_AREA(#312);
#311=FILL_AREA_STYLE('',(#313));
#312=FILL_AREA_STYLE('',(#314));
#313=FILL_AREA_STYLE_COLOUR('',#315);
#314=FILL_AREA_STYLE_COLOUR('',#316);
#315=COLOUR_RGB('',0.92156862745098,0.92156862745098,0.92156862745098);
#316=COLOUR_RGB('',0.745098039215686,0.737254901960784,0.729411764705882);
#317=AXIS2_PLACEMENT_3D('placement',#460,#361,#362);
#318=AXIS2_PLACEMENT_3D('placement',#461,#363,#364);
#319=AXIS2_PLACEMENT_3D('',#462,#365,#366);
#320=AXIS2_PLACEMENT_3D('',#464,#367,#368);
#321=AXIS2_PLACEMENT_3D('',#468,#370,#371);
#322=AXIS2_PLACEMENT_3D('',#469,#372,#373);
#323=AXIS2_PLACEMENT_3D('',#470,#374,#375);
#324=AXIS2_PLACEMENT_3D('',#473,#377,#378);
#325=AXIS2_PLACEMENT_3D('',#474,#379,#380);
#326=AXIS2_PLACEMENT_3D('',#477,#381,#382);
#327=AXIS2_PLACEMENT_3D('',#478,#383,#384);
#328=AXIS2_PLACEMENT_3D('',#479,#385,#386);
#329=AXIS2_PLACEMENT_3D('',#482,#387,#388);
#330=AXIS2_PLACEMENT_3D('',#483,#389,#390);
#331=AXIS2_PLACEMENT_3D('',#485,#392,#393);
#332=AXIS2_PLACEMENT_3D('',#488,#394,#395);
#333=AXIS2_PLACEMENT_3D('',#489,#396,#397);
#334=AXIS2_PLACEMENT_3D('',#491,#399,#400);
#335=AXIS2_PLACEMENT_3D('',#494,#401,#402);
#336=AXIS2_PLACEMENT_3D('',#495,#403,#404);
#337=AXIS2_PLACEMENT_3D('',#497,#406,#407);
#338=AXIS2_PLACEMENT_3D('',#500,#408,#409);
#339=AXIS2_PLACEMENT_3D('',#501,#410,#411);
#340=AXIS2_PLACEMENT_3D('',#503,#413,#414);
#341=AXIS2_PLACEMENT_3D('placement',#504,#415,#416);
#342=AXIS2_PLACEMENT_3D('',#505,#417,#418);
#343=AXIS2_PLACEMENT_3D('',#507,#419,#420);
#344=AXIS2_PLACEMENT_3D('',#510,#422,#423);
#345=AXIS2_PLACEMENT_3D('',#511,#424,#425);
#346=AXIS2_PLACEMENT_3D('',#513,#426,#427);
#347=AXIS2_PLACEMENT_3D('',#514,#428,#429);
#348=AXIS2_PLACEMENT_3D('',#516,#430,#431);
#349=AXIS2_PLACEMENT_3D('',#517,#432,#433);
#350=AXIS2_PLACEMENT_3D('',#519,#434,#435);
#351=AXIS2_PLACEMENT_3D('',#521,#437,#438);
#352=AXIS2_PLACEMENT_3D('',#523,#439,#440);
#353=AXIS2_PLACEMENT_3D('',#526,#442,#443);
#354=AXIS2_PLACEMENT_3D('',#527,#444,#445);
#355=AXIS2_PLACEMENT_3D('',#529,#447,#448);
#356=AXIS2_PLACEMENT_3D('',#530,#449,#450);
#357=AXIS2_PLACEMENT_3D('',#532,#451,#452);
#358=AXIS2_PLACEMENT_3D('',#534,#454,#455);
#359=AXIS2_PLACEMENT_3D('',#535,#456,#457);
#360=AXIS2_PLACEMENT_3D('',#536,#458,#459);
#361=DIRECTION('axis',(0.,0.,1.));
#362=DIRECTION('refdir',(1.,0.,0.));
#363=DIRECTION('axis',(0.,0.,1.));
#364=DIRECTION('refdir',(1.,0.,0.));
#365=DIRECTION('center_axis',(0.,1.,0.));
#366=DIRECTION('ref_axis',(1.,0.,0.));
#367=DIRECTION('center_axis',(0.,1.,0.));
#368=DIRECTION('ref_axis',(1.,0.,0.));
#369=DIRECTION('',(0.707106781186547,-0.707106781186548,-8.65956056235492E-17));
#370=DIRECTION('center_axis',(0.,-1.,0.));
#371=DIRECTION('ref_axis',(1.,0.,0.));
#372=DIRECTION('center_axis',(0.,-1.,0.));
#373=DIRECTION('ref_axis',(1.,0.,0.));
#374=DIRECTION('center_axis',(0.,1.,0.));
#375=DIRECTION('ref_axis',(-1.,0.,0.));
#376=DIRECTION('',(0.,-1.,0.));
#377=DIRECTION('center_axis',(0.,1.,0.));
#378=DIRECTION('ref_axis',(-1.,0.,0.));
#379=DIRECTION('center_axis',(0.,1.,0.));
#380=DIRECTION('ref_axis',(0.,0.,1.));
#381=DIRECTION('center_axis',(0.,-1.,0.));
#382=DIRECTION('ref_axis',(1.,0.,0.));
#383=DIRECTION('center_axis',(0.,-1.,0.));
#384=DIRECTION('ref_axis',(1.,0.,0.));
#385=DIRECTION('center_axis',(0.,-1.,0.));
#386=DIRECTION('ref_axis',(1.,0.,0.));
#387=DIRECTION('center_axis',(0.,-1.,0.));
#388=DIRECTION('ref_axis',(1.,0.,0.));
#389=DIRECTION('center_axis',(0.,-1.,0.));
#390=DIRECTION('ref_axis',(1.,0.,0.));
#391=DIRECTION('',(0.707106781186548,0.707106781186547,8.65956056235493E-17));
#392=DIRECTION('center_axis',(0.,-1.,0.));
#393=DIRECTION('ref_axis',(1.,0.,0.));
#394=DIRECTION('center_axis',(0.,-1.,0.));
#395=DIRECTION('ref_axis',(1.,0.,0.));
#396=DIRECTION('center_axis',(0.,-1.,0.));
#397=DIRECTION('ref_axis',(1.,0.,0.));
#398=DIRECTION('',(0.,1.,0.));
#399=DIRECTION('center_axis',(0.,1.,0.));
#400=DIRECTION('ref_axis',(1.,0.,0.));
#401=DIRECTION('center_axis',(0.,-1.,0.));
#402=DIRECTION('ref_axis',(1.,0.,0.));
#403=DIRECTION('center_axis',(0.,-1.,0.));
#404=DIRECTION('ref_axis',(1.,0.,0.));
#405=DIRECTION('',(-0.207911690817759,0.978147600733806,-2.54618386665282E-17));
#406=DIRECTION('center_axis',(0.,1.,0.));
#407=DIRECTION('ref_axis',(1.,0.,0.));
#408=DIRECTION('center_axis',(0.,-1.,0.));
#409=DIRECTION('ref_axis',(1.,0.,0.));
#410=DIRECTION('center_axis',(0.,-1.,0.));
#411=DIRECTION('ref_axis',(1.,0.,0.));
#412=DIRECTION('',(-0.573576436351046,0.819152044288992,-7.02428546843654E-17));
#413=DIRECTION('center_axis',(0.,-1.,0.));
#414=DIRECTION('ref_axis',(0.,0.,-1.));
#415=DIRECTION('axis',(0.,0.,1.));
#416=DIRECTION('refdir',(1.,0.,0.));
#417=DIRECTION('center_axis',(0.,0.,-1.));
#418=DIRECTION('ref_axis',(-1.,0.,0.));
#419=DIRECTION('center_axis',(0.,0.,1.));
#420=DIRECTION('ref_axis',(-1.,0.,0.));
#421=DIRECTION('',(0.,0.,1.));
#422=DIRECTION('center_axis',(0.,0.,-1.));
#423=DIRECTION('ref_axis',(-1.,0.,0.));
#424=DIRECTION('center_axis',(0.,0.,1.));
#425=DIRECTION('ref_axis',(1.,0.,0.));
#426=DIRECTION('center_axis',(0.,0.,-1.));
#427=DIRECTION('ref_axis',(-1.,0.,0.));
#428=DIRECTION('center_axis',(0.,0.,1.));
#429=DIRECTION('ref_axis',(1.,0.,0.));
#430=DIRECTION('center_axis',(0.,0.,1.));
#431=DIRECTION('ref_axis',(-1.,0.,0.));
#432=DIRECTION('center_axis',(0.,0.,1.));
#433=DIRECTION('ref_axis',(-1.,0.,0.));
#434=DIRECTION('center_axis',(0.,0.,1.));
#435=DIRECTION('ref_axis',(-1.,0.,0.));
#436=DIRECTION('',(0.,0.,-1.));
#437=DIRECTION('center_axis',(0.,0.,1.));
#438=DIRECTION('ref_axis',(-1.,0.,0.));
#439=DIRECTION('center_axis',(0.,0.,1.));
#440=DIRECTION('ref_axis',(-1.,0.,0.));
#441=DIRECTION('',(0.707106781186534,-8.65956056235477E-17,0.707106781186561));
#442=DIRECTION('center_axis',(0.,0.,-1.));
#443=DIRECTION('ref_axis',(-1.,0.,0.));
#444=DIRECTION('center_axis',(0.,0.,1.));
#445=DIRECTION('ref_axis',(-1.,0.,0.));
#446=DIRECTION('',(0.,0.,-1.));
#447=DIRECTION('center_axis',(0.,0.,1.));
#448=DIRECTION('ref_axis',(1.,0.,0.));
#449=DIRECTION('center_axis',(0.,0.,-1.));
#450=DIRECTION('ref_axis',(-1.,0.,0.));
#451=DIRECTION('center_axis',(0.,0.,-1.));
#452=DIRECTION('ref_axis',(-1.,0.,0.));
#453=DIRECTION('',(0.707106781186534,8.65956056235477E-17,-0.707106781186561));
#454=DIRECTION('center_axis',(0.,0.,1.));
#455=DIRECTION('ref_axis',(1.,0.,0.));
#456=DIRECTION('',(9.88247126977346E-16,-1.,8.02963531861019E-24));
#457=DIRECTION('',(1.,9.88247126977346E-16,-7.93526403429235E-39));
#458=DIRECTION('',(3.90312782094782E-18,8.02963531554407E-24,1.));
#459=DIRECTION('',(1.,-1.69406589450872E-21,-3.90312782094782E-18));
#460=CARTESIAN_POINT('',(0.,0.,0.));
#461=CARTESIAN_POINT('',(0.,0.,0.));
#462=CARTESIAN_POINT('Origin',(0.,19.625,0.));
#463=CARTESIAN_POINT('',(-4.938,20.,6.04730589418963E-16));
#464=CARTESIAN_POINT('Origin',(0.,20.,0.));
#465=CARTESIAN_POINT('',(-4.188,19.25,-5.12882079482912E-16));
#466=CARTESIAN_POINT('',(-4.563,19.625,5.58806334450937E-16));
#467=CARTESIAN_POINT('',(4.188,19.25,-5.12882079482912E-16));
#468=CARTESIAN_POINT('Origin',(0.,19.25,0.));
#469=CARTESIAN_POINT('Origin',(0.,19.25,0.));
#470=CARTESIAN_POINT('Origin',(0.,-13.4962684488885,0.));
#471=CARTESIAN_POINT('',(4.188,0.,-5.12882079482912E-16));
#472=CARTESIAN_POINT('',(4.188,-13.4962684488885,-5.12882079482912E-16));
#473=CARTESIAN_POINT('Origin',(0.,0.,0.));
#474=CARTESIAN_POINT('Origin',(7.5,20.,0.));
#475=CARTESIAN_POINT('',(7.5,20.,0.));
#476=CARTESIAN_POINT('',(-7.5,20.,-9.18485099360515E-16));
#477=CARTESIAN_POINT('Origin',(0.,20.,0.));
#478=CARTESIAN_POINT('Origin',(0.,20.,0.));
#479=CARTESIAN_POINT('Origin',(0.,19.,0.));
#480=CARTESIAN_POINT('',(9.5,18.,0.));
#481=CARTESIAN_POINT('',(-9.5,18.,-1.16341445918999E-15));
#482=CARTESIAN_POINT('Origin',(0.,18.,0.));
#483=CARTESIAN_POINT('Origin',(0.,18.,0.));
#484=CARTESIAN_POINT('',(-8.5,19.,-1.04094977927525E-15));
#485=CARTESIAN_POINT('Origin',(0.,11.5,0.));
#486=CARTESIAN_POINT('',(9.5,5.,0.));
#487=CARTESIAN_POINT('',(-9.5,5.,-1.16341445918999E-15));
#488=CARTESIAN_POINT('Origin',(0.,5.,0.));
#489=CARTESIAN_POINT('Origin',(0.,5.,0.));
#490=CARTESIAN_POINT('',(-9.5,11.5,-1.16341445918999E-15));
#491=CARTESIAN_POINT('Origin',(0.,3.20461992768507,0.));
#492=CARTESIAN_POINT('',(8.73676036987573,1.40923985537013,0.));
#493=CARTESIAN_POINT('',(-8.73676036987573,1.40923985537013,-1.06994456218858E-15));
#494=CARTESIAN_POINT('Origin',(0.,1.40923985537013,0.));
#495=CARTESIAN_POINT('Origin',(0.,1.40923985537013,0.));
#496=CARTESIAN_POINT('',(-9.11838018493786,3.20461992768507,-1.11667951068928E-15));
#497=CARTESIAN_POINT('Origin',(0.,0.704619927685066,0.));
#498=CARTESIAN_POINT('',(7.75,0.,0.));
#499=CARTESIAN_POINT('',(-7.75,-1.38777878078145E-16,-9.49101269339199E-16));
#500=CARTESIAN_POINT('Origin',(0.,0.,0.));
#501=CARTESIAN_POINT('Origin',(0.,0.,0.));
#502=CARTESIAN_POINT('',(-8.24338018493786,0.704619927685066,-1.00952291576389E-15));
#503=CARTESIAN_POINT('Origin',(0.,0.,0.));
#504=CARTESIAN_POINT('',(0.,0.,0.));
#505=CARTESIAN_POINT('Origin',(0.,0.,426.5));
#506=CARTESIAN_POINT('',(4.5,5.51091059616309E-16,-458.5));
#507=CARTESIAN_POINT('Origin',(0.,0.,-458.5));
#508=CARTESIAN_POINT('',(4.5,5.51091059616309E-16,426.5));
#509=CARTESIAN_POINT('',(4.5,-5.51091059616309E-16,426.5));
#510=CARTESIAN_POINT('Origin',(0.,0.,426.5));
#511=CARTESIAN_POINT('Origin',(-2.24345254752611E-16,0.,-458.5));
#512=CARTESIAN_POINT('',(5.,-6.12323399573677E-16,-458.5));
#513=CARTESIAN_POINT('Origin',(0.,0.,-458.5));
#514=CARTESIAN_POINT('Origin',(-2.24345254752611E-16,0.,426.5));
#515=CARTESIAN_POINT('',(5.,6.12323399573677E-16,426.5));
#516=CARTESIAN_POINT('Origin',(0.,0.,426.5));
#517=CARTESIAN_POINT('Origin',(0.,0.,0.));
#518=CARTESIAN_POINT('',(5.,6.12323399573677E-16,475.75));
#519=CARTESIAN_POINT('Origin',(0.,0.,475.75));
#520=CARTESIAN_POINT('',(5.,6.12323399573677E-16,0.));
#521=CARTESIAN_POINT('Origin',(0.,0.,-476.125));
#522=CARTESIAN_POINT('',(4.25,5.20474889637625E-16,-476.5));
#523=CARTESIAN_POINT('Origin',(0.,0.,-476.5));
#524=CARTESIAN_POINT('',(5.,-6.12323399573677E-16,-475.75));
#525=CARTESIAN_POINT('',(4.625,-5.66399144605651E-16,-476.125));
#526=CARTESIAN_POINT('Origin',(0.,0.,-475.75));
#527=CARTESIAN_POINT('Origin',(0.,0.,0.));
#528=CARTESIAN_POINT('',(5.,6.12323399573677E-16,0.));
#529=CARTESIAN_POINT('Origin',(-2.36064120735332E-16,0.,-476.5));
#530=CARTESIAN_POINT('Origin',(0.,0.,476.125));
#531=CARTESIAN_POINT('',(4.25,-5.20474889637625E-16,476.5));
#532=CARTESIAN_POINT('Origin',(0.,0.,476.5));
#533=CARTESIAN_POINT('',(4.625,5.66399144605651E-16,476.125));
#534=CARTESIAN_POINT('Origin',(-2.36064120735332E-16,0.,476.5));
#535=CARTESIAN_POINT('',(1.28184078409406,-2.43445694446567,-86.3545424200463));
#536=CARTESIAN_POINT('',(1.28184078409406,-2.43445694446564,430.145457579954));
#537=UNCERTAINTY_MEASURE_WITH_UNIT(LENGTH_MEASURE(0.01),#545,
'DISTANCE_ACCURACY_VALUE',
'Maximum model space distance between geometric entities at asserted c
onnectivities');
#538=UNCERTAINTY_MEASURE_WITH_UNIT(LENGTH_MEASURE(0.01),#545,
'DISTANCE_ACCURACY_VALUE',
'Maximum model space distance between geometric entities at asserted c
onnectivities');
#539=UNCERTAINTY_MEASURE_WITH_UNIT(LENGTH_MEASURE(0.01),#545,
'DISTANCE_ACCURACY_VALUE',
'Maximum model space distance between geometric entities at asserted c
onnectivities');
#540=UNCERTAINTY_MEASURE_WITH_UNIT(LENGTH_MEASURE(0.01),#545,
'DISTANCE_ACCURACY_VALUE',
'Maximum model space distance between geometric entities at asserted c
onnectivities');
#541=(
GEOMETRIC_REPRESENTATION_CONTEXT(3)
GLOBAL_UNCERTAINTY_ASSIGNED_CONTEXT((#537))
GLOBAL_UNIT_ASSIGNED_CONTEXT((#545,#547,#548))
REPRESENTATION_CONTEXT('','3D')
);
#542=(
GEOMETRIC_REPRESENTATION_CONTEXT(3)
GLOBAL_UNCERTAINTY_ASSIGNED_CONTEXT((#538))
GLOBAL_UNIT_ASSIGNED_CONTEXT((#545,#547,#548))
REPRESENTATION_CONTEXT('','3D')
);
#543=(
GEOMETRIC_REPRESENTATION_CONTEXT(3)
GLOBAL_UNCERTAINTY_ASSIGNED_CONTEXT((#539))
GLOBAL_UNIT_ASSIGNED_CONTEXT((#545,#547,#548))
REPRESENTATION_CONTEXT('','3D')
);
#544=(
GEOMETRIC_REPRESENTATION_CONTEXT(3)
GLOBAL_UNCERTAINTY_ASSIGNED_CONTEXT((#540))
GLOBAL_UNIT_ASSIGNED_CONTEXT((#545,#547,#548))
REPRESENTATION_CONTEXT('','3D')
);
#545=(
LENGTH_UNIT()
NAMED_UNIT(*)
SI_UNIT(.MILLI.,.METRE.)
);
#546=(
LENGTH_UNIT()
NAMED_UNIT(*)
SI_UNIT(.CENTI.,.METRE.)
);
#547=(
NAMED_UNIT(*)
PLANE_ANGLE_UNIT()
SI_UNIT($,.RADIAN.)
);
#548=(
NAMED_UNIT(*)
SI_UNIT($,.STERADIAN.)
SOLID_ANGLE_UNIT()
);
#549=SHAPE_DEFINITION_REPRESENTATION(#552,#557);
#550=SHAPE_DEFINITION_REPRESENTATION(#553,#558);
#551=SHAPE_DEFINITION_REPRESENTATION(#554,#559);
#552=PRODUCT_DEFINITION_SHAPE('',$,#561);
#553=PRODUCT_DEFINITION_SHAPE('',$,#562);
#554=PRODUCT_DEFINITION_SHAPE('',$,#563);
#555=PRODUCT_DEFINITION_SHAPE($,$,#17);
#556=PRODUCT_DEFINITION_SHAPE($,$,#18);
#557=SHAPE_REPRESENTATION('',(#317,#359,#360),#541);
#558=SHAPE_REPRESENTATION('',(#318),#542);
#559=SHAPE_REPRESENTATION('',(#341),#543);
#560=PRODUCT_DEFINITION_CONTEXT('part definition',#571,'design');
#561=PRODUCT_DEFINITION('GJ10530RP','GJ10530RP',#564,#560);
#562=PRODUCT_DEFINITION('22858','22858',#565,#560);
#563=PRODUCT_DEFINITION('23964','23964',#566,#560);
#564=PRODUCT_DEFINITION_FORMATION('',$,#573);
#565=PRODUCT_DEFINITION_FORMATION('',$,#574);
#566=PRODUCT_DEFINITION_FORMATION('',$,#575);
#567=PRODUCT_RELATED_PRODUCT_CATEGORY('GJ10530RP','GJ10530RP',(#573));
#568=PRODUCT_RELATED_PRODUCT_CATEGORY('22858','22858',(#574));
#569=PRODUCT_RELATED_PRODUCT_CATEGORY('23964','23964',(#575));
#570=APPLICATION_PROTOCOL_DEFINITION('international standard',
'automotive_design',2009,#571);
#571=APPLICATION_CONTEXT(
'Core Data for Automotive Mechanical Design Process');
#572=PRODUCT_CONTEXT('part definition',#571,'mechanical');
#573=PRODUCT('GJ10530RP','GJ10530RP',$,(#572));
#574=PRODUCT('22858','22858',$,(#572));
#575=PRODUCT('23964','23964',$,(#572));
ENDSEC;
END-ISO-10303-21;
