ISO-10303-21;
HEADER;
/* Generated by software containing ST-Developer
 * from STEP Tools, Inc. (www.steptools.com) 
 */

FILE_DESCRIPTION(
/* description */ (''),
/* implementation_level */ '2;1');

FILE_NAME(
/* name */ 
'R:\\BE\\Inventor\\Plans commerciaux\\Plans pour conversion\\A4\\22855.
stp',
/* time_stamp */ '2023-03-07T13:28:39+01:00',
/* author */ ('DOMINIQUE'),
/* organization */ (''),
/* preprocessor_version */ 'ST-DEVELOPER v18.1',
/* originating_system */ 'Autodesk Inventor 2021',
/* authorisation */ '');

FILE_SCHEMA (('CONFIG_CONTROL_DESIGN'));
ENDSEC;

DATA;
#10=MECHANICAL_DESIGN_GEOMETRIC_PRESENTATION_REPRESENTATION('',(#13),#607);
#11=SHAPE_REPRESENTATION_RELATIONSHIP('SRR','None',#614,#12);
#12=ADVANCED_BREP_SHAPE_REPRESENTATION('',(#14),#606);
#13=STYLED_ITEM('',(#623),#14);
#14=MANIFOLD_SOLID_BREP('Solide1',#329);
#15=CONICAL_SURFACE('',#354,2.37500000000002,0.291456794477864);
#16=CONICAL_SURFACE('',#368,3.32499999999998,0.343023940420658);
#17=CONICAL_SURFACE('',#374,3.32500000000006,0.343023940420658);
#18=CONICAL_SURFACE('',#380,3.32500000000014,0.343023940420657);
#19=CONICAL_SURFACE('',#384,3.10000000000009,0.236848760946966);
#20=CONICAL_SURFACE('',#389,8.5,0.785398163397448);
#21=CONICAL_SURFACE('',#393,9.11838018493786,0.209439510239319);
#22=CONICAL_SURFACE('',#395,8.24338018493786,0.610865238198015);
#23=FACE_BOUND('',#66,.T.);
#24=FACE_BOUND('',#71,.T.);
#25=FACE_BOUND('',#74,.T.);
#26=FACE_BOUND('',#78,.T.);
#27=FACE_BOUND('',#82,.T.);
#28=FACE_BOUND('',#86,.T.);
#29=FACE_BOUND('',#90,.T.);
#30=PLANE('',#352);
#31=PLANE('',#357);
#32=PLANE('',#360);
#33=PLANE('',#364);
#34=PLANE('',#370);
#35=PLANE('',#376);
#36=PLANE('',#382);
#37=PLANE('',#387);
#38=PLANE('',#397);
#39=FACE_OUTER_BOUND('',#64,.T.);
#40=FACE_OUTER_BOUND('',#65,.T.);
#41=FACE_OUTER_BOUND('',#67,.T.);
#42=FACE_OUTER_BOUND('',#68,.T.);
#43=FACE_OUTER_BOUND('',#69,.T.);
#44=FACE_OUTER_BOUND('',#70,.T.);
#45=FACE_OUTER_BOUND('',#72,.T.);
#46=FACE_OUTER_BOUND('',#73,.T.);
#47=FACE_OUTER_BOUND('',#75,.T.);
#48=FACE_OUTER_BOUND('',#76,.T.);
#49=FACE_OUTER_BOUND('',#77,.T.);
#50=FACE_OUTER_BOUND('',#79,.T.);
#51=FACE_OUTER_BOUND('',#80,.T.);
#52=FACE_OUTER_BOUND('',#81,.T.);
#53=FACE_OUTER_BOUND('',#83,.T.);
#54=FACE_OUTER_BOUND('',#84,.T.);
#55=FACE_OUTER_BOUND('',#85,.T.);
#56=FACE_OUTER_BOUND('',#87,.T.);
#57=FACE_OUTER_BOUND('',#88,.T.);
#58=FACE_OUTER_BOUND('',#89,.T.);
#59=FACE_OUTER_BOUND('',#91,.T.);
#60=FACE_OUTER_BOUND('',#92,.T.);
#61=FACE_OUTER_BOUND('',#93,.T.);
#62=FACE_OUTER_BOUND('',#94,.T.);
#63=FACE_OUTER_BOUND('',#95,.T.);
#64=EDGE_LOOP('',(#216,#217,#218,#219));
#65=EDGE_LOOP('',(#220));
#66=EDGE_LOOP('',(#221));
#67=EDGE_LOOP('',(#222,#223,#224,#225));
#68=EDGE_LOOP('',(#226));
#69=EDGE_LOOP('',(#227,#228,#229,#230));
#70=EDGE_LOOP('',(#231));
#71=EDGE_LOOP('',(#232));
#72=EDGE_LOOP('',(#233,#234,#235,#236));
#73=EDGE_LOOP('',(#237));
#74=EDGE_LOOP('',(#238));
#75=EDGE_LOOP('',(#239,#240,#241,#242));
#76=EDGE_LOOP('',(#243,#244,#245,#246));
#77=EDGE_LOOP('',(#247));
#78=EDGE_LOOP('',(#248));
#79=EDGE_LOOP('',(#249,#250,#251,#252));
#80=EDGE_LOOP('',(#253,#254,#255,#256));
#81=EDGE_LOOP('',(#257));
#82=EDGE_LOOP('',(#258));
#83=EDGE_LOOP('',(#259,#260,#261,#262));
#84=EDGE_LOOP('',(#263,#264,#265,#266));
#85=EDGE_LOOP('',(#267));
#86=EDGE_LOOP('',(#268));
#87=EDGE_LOOP('',(#269,#270,#271,#272));
#88=EDGE_LOOP('',(#273,#274,#275,#276));
#89=EDGE_LOOP('',(#277));
#90=EDGE_LOOP('',(#278));
#91=EDGE_LOOP('',(#279,#280,#281,#282));
#92=EDGE_LOOP('',(#283,#284,#285,#286));
#93=EDGE_LOOP('',(#287,#288,#289,#290));
#94=EDGE_LOOP('',(#291,#292,#293,#294));
#95=EDGE_LOOP('',(#295));
#96=LINE('',#519,#112);
#97=LINE('',#528,#113);
#98=LINE('',#534,#114);
#99=LINE('',#541,#115);
#100=LINE('',#548,#116);
#101=LINE('',#552,#117);
#102=LINE('',#559,#118);
#103=LINE('',#563,#119);
#104=LINE('',#570,#120);
#105=LINE('',#574,#121);
#106=LINE('',#581,#122);
#107=LINE('',#583,#123);
#108=LINE('',#590,#124);
#109=LINE('',#594,#125);
#110=LINE('',#598,#126);
#111=LINE('',#602,#127);
#112=VECTOR('',#404,5.05);
#113=VECTOR('',#415,2.37500000000002);
#114=VECTOR('',#424,3.45);
#115=VECTOR('',#433,3.14999999999986);
#116=VECTOR('',#442,3.44999999999995);
#117=VECTOR('',#447,3.32499999999998);
#118=VECTOR('',#456,3.45000000000002);
#119=VECTOR('',#461,3.32500000000006);
#120=VECTOR('',#470,3.4500000000001);
#121=VECTOR('',#475,3.32500000000014);
#122=VECTOR('',#484,3.10000000000009);
#123=VECTOR('',#487,2.75000000000002);
#124=VECTOR('',#496,8.5);
#125=VECTOR('',#501,9.5);
#126=VECTOR('',#506,9.11838018493786);
#127=VECTOR('',#511,8.24338018493786);
#128=CIRCLE('',#350,5.05);
#129=CIRCLE('',#351,5.05);
#130=CIRCLE('',#353,3.45);
#131=CIRCLE('',#355,2.00000000000003);
#132=CIRCLE('',#356,2.75000000000002);
#133=CIRCLE('',#359,3.45);
#134=CIRCLE('',#361,3.14999999999981);
#135=CIRCLE('',#363,3.14999999999992);
#136=CIRCLE('',#365,3.44999999999992);
#137=CIRCLE('',#367,3.44999999999997);
#138=CIRCLE('',#369,3.2);
#139=CIRCLE('',#371,3.45);
#140=CIRCLE('',#373,3.45000000000005);
#141=CIRCLE('',#375,3.20000000000008);
#142=CIRCLE('',#377,3.45000000000008);
#143=CIRCLE('',#379,3.45000000000012);
#144=CIRCLE('',#381,3.20000000000016);
#145=CIRCLE('',#383,3.45000000000016);
#146=CIRCLE('',#385,2.75000000000002);
#147=CIRCLE('',#388,7.5);
#148=CIRCLE('',#390,9.5);
#149=CIRCLE('',#392,9.5);
#150=CIRCLE('',#394,8.73676036987573);
#151=CIRCLE('',#396,7.75);
#152=VERTEX_POINT('',#516);
#153=VERTEX_POINT('',#518);
#154=VERTEX_POINT('',#522);
#155=VERTEX_POINT('',#525);
#156=VERTEX_POINT('',#527);
#157=VERTEX_POINT('',#532);
#158=VERTEX_POINT('',#536);
#159=VERTEX_POINT('',#539);
#160=VERTEX_POINT('',#543);
#161=VERTEX_POINT('',#546);
#162=VERTEX_POINT('',#550);
#163=VERTEX_POINT('',#554);
#164=VERTEX_POINT('',#557);
#165=VERTEX_POINT('',#561);
#166=VERTEX_POINT('',#565);
#167=VERTEX_POINT('',#568);
#168=VERTEX_POINT('',#572);
#169=VERTEX_POINT('',#576);
#170=VERTEX_POINT('',#579);
#171=VERTEX_POINT('',#585);
#172=VERTEX_POINT('',#588);
#173=VERTEX_POINT('',#592);
#174=VERTEX_POINT('',#596);
#175=VERTEX_POINT('',#600);
#176=EDGE_CURVE('',#152,#152,#128,.T.);
#177=EDGE_CURVE('',#152,#153,#96,.T.);
#178=EDGE_CURVE('',#153,#153,#129,.T.);
#179=EDGE_CURVE('',#154,#154,#130,.T.);
#180=EDGE_CURVE('',#155,#155,#131,.T.);
#181=EDGE_CURVE('',#155,#156,#97,.T.);
#182=EDGE_CURVE('',#156,#156,#132,.T.);
#183=EDGE_CURVE('',#157,#157,#133,.T.);
#184=EDGE_CURVE('',#157,#154,#98,.T.);
#185=EDGE_CURVE('',#158,#158,#134,.T.);
#186=EDGE_CURVE('',#159,#159,#135,.T.);
#187=EDGE_CURVE('',#159,#158,#99,.T.);
#188=EDGE_CURVE('',#160,#160,#136,.T.);
#189=EDGE_CURVE('',#161,#161,#137,.T.);
#190=EDGE_CURVE('',#161,#160,#100,.T.);
#191=EDGE_CURVE('',#162,#162,#138,.T.);
#192=EDGE_CURVE('',#162,#161,#101,.T.);
#193=EDGE_CURVE('',#163,#163,#139,.T.);
#194=EDGE_CURVE('',#164,#164,#140,.T.);
#195=EDGE_CURVE('',#164,#163,#102,.T.);
#196=EDGE_CURVE('',#165,#165,#141,.T.);
#197=EDGE_CURVE('',#165,#164,#103,.T.);
#198=EDGE_CURVE('',#166,#166,#142,.T.);
#199=EDGE_CURVE('',#167,#167,#143,.T.);
#200=EDGE_CURVE('',#167,#166,#104,.T.);
#201=EDGE_CURVE('',#168,#168,#144,.T.);
#202=EDGE_CURVE('',#168,#167,#105,.T.);
#203=EDGE_CURVE('',#169,#169,#145,.T.);
#204=EDGE_CURVE('',#170,#170,#146,.T.);
#205=EDGE_CURVE('',#170,#169,#106,.T.);
#206=EDGE_CURVE('',#156,#170,#107,.T.);
#207=EDGE_CURVE('',#171,#171,#147,.T.);
#208=EDGE_CURVE('',#172,#172,#148,.T.);
#209=EDGE_CURVE('',#172,#171,#108,.T.);
#210=EDGE_CURVE('',#173,#173,#149,.T.);
#211=EDGE_CURVE('',#173,#172,#109,.T.);
#212=EDGE_CURVE('',#174,#174,#150,.T.);
#213=EDGE_CURVE('',#174,#173,#110,.T.);
#214=EDGE_CURVE('',#175,#175,#151,.T.);
#215=EDGE_CURVE('',#175,#174,#111,.T.);
#216=ORIENTED_EDGE('',*,*,#176,.F.);
#217=ORIENTED_EDGE('',*,*,#177,.T.);
#218=ORIENTED_EDGE('',*,*,#178,.T.);
#219=ORIENTED_EDGE('',*,*,#177,.F.);
#220=ORIENTED_EDGE('',*,*,#178,.F.);
#221=ORIENTED_EDGE('',*,*,#179,.F.);
#222=ORIENTED_EDGE('',*,*,#180,.F.);
#223=ORIENTED_EDGE('',*,*,#181,.T.);
#224=ORIENTED_EDGE('',*,*,#182,.T.);
#225=ORIENTED_EDGE('',*,*,#181,.F.);
#226=ORIENTED_EDGE('',*,*,#180,.T.);
#227=ORIENTED_EDGE('',*,*,#183,.F.);
#228=ORIENTED_EDGE('',*,*,#184,.T.);
#229=ORIENTED_EDGE('',*,*,#179,.T.);
#230=ORIENTED_EDGE('',*,*,#184,.F.);
#231=ORIENTED_EDGE('',*,*,#183,.T.);
#232=ORIENTED_EDGE('',*,*,#185,.F.);
#233=ORIENTED_EDGE('',*,*,#186,.F.);
#234=ORIENTED_EDGE('',*,*,#187,.T.);
#235=ORIENTED_EDGE('',*,*,#185,.T.);
#236=ORIENTED_EDGE('',*,*,#187,.F.);
#237=ORIENTED_EDGE('',*,*,#188,.F.);
#238=ORIENTED_EDGE('',*,*,#186,.T.);
#239=ORIENTED_EDGE('',*,*,#189,.F.);
#240=ORIENTED_EDGE('',*,*,#190,.T.);
#241=ORIENTED_EDGE('',*,*,#188,.T.);
#242=ORIENTED_EDGE('',*,*,#190,.F.);
#243=ORIENTED_EDGE('',*,*,#191,.F.);
#244=ORIENTED_EDGE('',*,*,#192,.T.);
#245=ORIENTED_EDGE('',*,*,#189,.T.);
#246=ORIENTED_EDGE('',*,*,#192,.F.);
#247=ORIENTED_EDGE('',*,*,#193,.F.);
#248=ORIENTED_EDGE('',*,*,#191,.T.);
#249=ORIENTED_EDGE('',*,*,#194,.F.);
#250=ORIENTED_EDGE('',*,*,#195,.T.);
#251=ORIENTED_EDGE('',*,*,#193,.T.);
#252=ORIENTED_EDGE('',*,*,#195,.F.);
#253=ORIENTED_EDGE('',*,*,#196,.F.);
#254=ORIENTED_EDGE('',*,*,#197,.T.);
#255=ORIENTED_EDGE('',*,*,#194,.T.);
#256=ORIENTED_EDGE('',*,*,#197,.F.);
#257=ORIENTED_EDGE('',*,*,#198,.F.);
#258=ORIENTED_EDGE('',*,*,#196,.T.);
#259=ORIENTED_EDGE('',*,*,#199,.F.);
#260=ORIENTED_EDGE('',*,*,#200,.T.);
#261=ORIENTED_EDGE('',*,*,#198,.T.);
#262=ORIENTED_EDGE('',*,*,#200,.F.);
#263=ORIENTED_EDGE('',*,*,#201,.F.);
#264=ORIENTED_EDGE('',*,*,#202,.T.);
#265=ORIENTED_EDGE('',*,*,#199,.T.);
#266=ORIENTED_EDGE('',*,*,#202,.F.);
#267=ORIENTED_EDGE('',*,*,#203,.F.);
#268=ORIENTED_EDGE('',*,*,#201,.T.);
#269=ORIENTED_EDGE('',*,*,#204,.F.);
#270=ORIENTED_EDGE('',*,*,#205,.T.);
#271=ORIENTED_EDGE('',*,*,#203,.T.);
#272=ORIENTED_EDGE('',*,*,#205,.F.);
#273=ORIENTED_EDGE('',*,*,#182,.F.);
#274=ORIENTED_EDGE('',*,*,#206,.T.);
#275=ORIENTED_EDGE('',*,*,#204,.T.);
#276=ORIENTED_EDGE('',*,*,#206,.F.);
#277=ORIENTED_EDGE('',*,*,#207,.F.);
#278=ORIENTED_EDGE('',*,*,#176,.T.);
#279=ORIENTED_EDGE('',*,*,#208,.F.);
#280=ORIENTED_EDGE('',*,*,#209,.T.);
#281=ORIENTED_EDGE('',*,*,#207,.T.);
#282=ORIENTED_EDGE('',*,*,#209,.F.);
#283=ORIENTED_EDGE('',*,*,#210,.F.);
#284=ORIENTED_EDGE('',*,*,#211,.T.);
#285=ORIENTED_EDGE('',*,*,#208,.T.);
#286=ORIENTED_EDGE('',*,*,#211,.F.);
#287=ORIENTED_EDGE('',*,*,#212,.F.);
#288=ORIENTED_EDGE('',*,*,#213,.T.);
#289=ORIENTED_EDGE('',*,*,#210,.T.);
#290=ORIENTED_EDGE('',*,*,#213,.F.);
#291=ORIENTED_EDGE('',*,*,#214,.F.);
#292=ORIENTED_EDGE('',*,*,#215,.T.);
#293=ORIENTED_EDGE('',*,*,#212,.T.);
#294=ORIENTED_EDGE('',*,*,#215,.F.);
#295=ORIENTED_EDGE('',*,*,#214,.T.);
#296=CYLINDRICAL_SURFACE('',#349,5.05);
#297=CYLINDRICAL_SURFACE('',#358,3.45);
#298=CYLINDRICAL_SURFACE('',#362,3.14999999999986);
#299=CYLINDRICAL_SURFACE('',#366,3.44999999999995);
#300=CYLINDRICAL_SURFACE('',#372,3.45000000000002);
#301=CYLINDRICAL_SURFACE('',#378,3.4500000000001);
#302=CYLINDRICAL_SURFACE('',#386,2.75000000000002);
#303=CYLINDRICAL_SURFACE('',#391,9.5);
#304=ADVANCED_FACE('',(#39),#296,.F.);
#305=ADVANCED_FACE('',(#40,#23),#30,.T.);
#306=ADVANCED_FACE('',(#41),#15,.T.);
#307=ADVANCED_FACE('',(#42),#31,.T.);
#308=ADVANCED_FACE('',(#43),#297,.T.);
#309=ADVANCED_FACE('',(#44,#24),#32,.T.);
#310=ADVANCED_FACE('',(#45),#298,.T.);
#311=ADVANCED_FACE('',(#46,#25),#33,.T.);
#312=ADVANCED_FACE('',(#47),#299,.T.);
#313=ADVANCED_FACE('',(#48),#16,.T.);
#314=ADVANCED_FACE('',(#49,#26),#34,.T.);
#315=ADVANCED_FACE('',(#50),#300,.T.);
#316=ADVANCED_FACE('',(#51),#17,.T.);
#317=ADVANCED_FACE('',(#52,#27),#35,.T.);
#318=ADVANCED_FACE('',(#53),#301,.T.);
#319=ADVANCED_FACE('',(#54),#18,.T.);
#320=ADVANCED_FACE('',(#55,#28),#36,.T.);
#321=ADVANCED_FACE('',(#56),#19,.T.);
#322=ADVANCED_FACE('',(#57),#302,.T.);
#323=ADVANCED_FACE('',(#58,#29),#37,.T.);
#324=ADVANCED_FACE('',(#59),#20,.T.);
#325=ADVANCED_FACE('',(#60),#303,.T.);
#326=ADVANCED_FACE('',(#61),#21,.T.);
#327=ADVANCED_FACE('',(#62),#22,.T.);
#328=ADVANCED_FACE('',(#63),#38,.T.);
#329=CLOSED_SHELL('',(#304,#305,#306,#307,#308,#309,#310,#311,#312,#313,
#314,#315,#316,#317,#318,#319,#320,#321,#322,#323,#324,#325,#326,#327,#328));
#330=DERIVED_UNIT_ELEMENT(#332,1.);
#331=DERIVED_UNIT_ELEMENT(#609,-3.);
#332=(
MASS_UNIT()
NAMED_UNIT(*)
SI_UNIT($,.GRAM.)
);
#333=DERIVED_UNIT((#330,#331));
#334=MEASURE_REPRESENTATION_ITEM('density measure',
POSITIVE_RATIO_MEASURE(1.06),#333);
#335=PROPERTY_DEFINITION_REPRESENTATION(#340,#337);
#336=PROPERTY_DEFINITION_REPRESENTATION(#341,#338);
#337=REPRESENTATION('material name',(#339),#606);
#338=REPRESENTATION('density',(#334),#606);
#339=DESCRIPTIVE_REPRESENTATION_ITEM('Plastique ABS','Plastique ABS');
#340=PROPERTY_DEFINITION('material property','material name',#616);
#341=PROPERTY_DEFINITION('material property','density of part',#616);
#342=DATE_TIME_ROLE('creation_date');
#343=CC_DESIGN_DATE_AND_TIME_ASSIGNMENT(#344,#342,(#616));
#344=DATE_AND_TIME(#345,#346);
#345=CALENDAR_DATE(2016,31,8);
#346=LOCAL_TIME(0,0,0.,#347);
#347=COORDINATED_UNIVERSAL_TIME_OFFSET(0,0,.BEHIND.);
#348=AXIS2_PLACEMENT_3D('placement',#514,#398,#399);
#349=AXIS2_PLACEMENT_3D('',#515,#400,#401);
#350=AXIS2_PLACEMENT_3D('',#517,#402,#403);
#351=AXIS2_PLACEMENT_3D('',#520,#405,#406);
#352=AXIS2_PLACEMENT_3D('',#521,#407,#408);
#353=AXIS2_PLACEMENT_3D('',#523,#409,#410);
#354=AXIS2_PLACEMENT_3D('',#524,#411,#412);
#355=AXIS2_PLACEMENT_3D('',#526,#413,#414);
#356=AXIS2_PLACEMENT_3D('',#529,#416,#417);
#357=AXIS2_PLACEMENT_3D('',#530,#418,#419);
#358=AXIS2_PLACEMENT_3D('',#531,#420,#421);
#359=AXIS2_PLACEMENT_3D('',#533,#422,#423);
#360=AXIS2_PLACEMENT_3D('',#535,#425,#426);
#361=AXIS2_PLACEMENT_3D('',#537,#427,#428);
#362=AXIS2_PLACEMENT_3D('',#538,#429,#430);
#363=AXIS2_PLACEMENT_3D('',#540,#431,#432);
#364=AXIS2_PLACEMENT_3D('',#542,#434,#435);
#365=AXIS2_PLACEMENT_3D('',#544,#436,#437);
#366=AXIS2_PLACEMENT_3D('',#545,#438,#439);
#367=AXIS2_PLACEMENT_3D('',#547,#440,#441);
#368=AXIS2_PLACEMENT_3D('',#549,#443,#444);
#369=AXIS2_PLACEMENT_3D('',#551,#445,#446);
#370=AXIS2_PLACEMENT_3D('',#553,#448,#449);
#371=AXIS2_PLACEMENT_3D('',#555,#450,#451);
#372=AXIS2_PLACEMENT_3D('',#556,#452,#453);
#373=AXIS2_PLACEMENT_3D('',#558,#454,#455);
#374=AXIS2_PLACEMENT_3D('',#560,#457,#458);
#375=AXIS2_PLACEMENT_3D('',#562,#459,#460);
#376=AXIS2_PLACEMENT_3D('',#564,#462,#463);
#377=AXIS2_PLACEMENT_3D('',#566,#464,#465);
#378=AXIS2_PLACEMENT_3D('',#567,#466,#467);
#379=AXIS2_PLACEMENT_3D('',#569,#468,#469);
#380=AXIS2_PLACEMENT_3D('',#571,#471,#472);
#381=AXIS2_PLACEMENT_3D('',#573,#473,#474);
#382=AXIS2_PLACEMENT_3D('',#575,#476,#477);
#383=AXIS2_PLACEMENT_3D('',#577,#478,#479);
#384=AXIS2_PLACEMENT_3D('',#578,#480,#481);
#385=AXIS2_PLACEMENT_3D('',#580,#482,#483);
#386=AXIS2_PLACEMENT_3D('',#582,#485,#486);
#387=AXIS2_PLACEMENT_3D('',#584,#488,#489);
#388=AXIS2_PLACEMENT_3D('',#586,#490,#491);
#389=AXIS2_PLACEMENT_3D('',#587,#492,#493);
#390=AXIS2_PLACEMENT_3D('',#589,#494,#495);
#391=AXIS2_PLACEMENT_3D('',#591,#497,#498);
#392=AXIS2_PLACEMENT_3D('',#593,#499,#500);
#393=AXIS2_PLACEMENT_3D('',#595,#502,#503);
#394=AXIS2_PLACEMENT_3D('',#597,#504,#505);
#395=AXIS2_PLACEMENT_3D('',#599,#507,#508);
#396=AXIS2_PLACEMENT_3D('',#601,#509,#510);
#397=AXIS2_PLACEMENT_3D('',#603,#512,#513);
#398=DIRECTION('axis',(0.,0.,1.));
#399=DIRECTION('refdir',(1.,0.,0.));
#400=DIRECTION('center_axis',(0.,-1.,0.));
#401=DIRECTION('ref_axis',(-1.,0.,0.));
#402=DIRECTION('center_axis',(0.,-1.,0.));
#403=DIRECTION('ref_axis',(-1.,0.,0.));
#404=DIRECTION('',(0.,-1.,0.));
#405=DIRECTION('center_axis',(0.,-1.,0.));
#406=DIRECTION('ref_axis',(-1.,0.,0.));
#407=DIRECTION('center_axis',(0.,1.,0.));
#408=DIRECTION('ref_axis',(0.,0.,1.));
#409=DIRECTION('center_axis',(0.,1.,0.));
#410=DIRECTION('ref_axis',(-1.,0.,0.));
#411=DIRECTION('center_axis',(0.,-1.,0.));
#412=DIRECTION('ref_axis',(0.,0.,1.));
#413=DIRECTION('center_axis',(0.,1.,0.));
#414=DIRECTION('ref_axis',(1.,0.,0.));
#415=DIRECTION('',(-3.51899668300581E-17,-0.957826285221152,-0.287347885566343));
#416=DIRECTION('center_axis',(0.,1.,0.));
#417=DIRECTION('ref_axis',(1.,0.,0.));
#418=DIRECTION('center_axis',(0.,1.,0.));
#419=DIRECTION('ref_axis',(0.,0.,1.));
#420=DIRECTION('center_axis',(0.,1.,0.));
#421=DIRECTION('ref_axis',(0.,0.,1.));
#422=DIRECTION('center_axis',(0.,1.,0.));
#423=DIRECTION('ref_axis',(1.,0.,0.));
#424=DIRECTION('',(0.,-1.,0.));
#425=DIRECTION('center_axis',(0.,1.,0.));
#426=DIRECTION('ref_axis',(0.,0.,1.));
#427=DIRECTION('center_axis',(0.,1.,0.));
#428=DIRECTION('ref_axis',(1.,0.,0.));
#429=DIRECTION('center_axis',(0.,1.,0.));
#430=DIRECTION('ref_axis',(0.,0.,1.));
#431=DIRECTION('center_axis',(0.,1.,0.));
#432=DIRECTION('ref_axis',(1.,0.,0.));
#433=DIRECTION('',(0.,-1.,0.));
#434=DIRECTION('center_axis',(0.,-1.,0.));
#435=DIRECTION('ref_axis',(0.,0.,-1.));
#436=DIRECTION('center_axis',(0.,1.,0.));
#437=DIRECTION('ref_axis',(1.,0.,0.));
#438=DIRECTION('center_axis',(0.,1.,0.));
#439=DIRECTION('ref_axis',(0.,0.,1.));
#440=DIRECTION('center_axis',(0.,1.,0.));
#441=DIRECTION('ref_axis',(1.,0.,0.));
#442=DIRECTION('',(0.,-1.,0.));
#443=DIRECTION('center_axis',(0.,-1.,0.));
#444=DIRECTION('ref_axis',(0.,0.,1.));
#445=DIRECTION('center_axis',(0.,1.,0.));
#446=DIRECTION('ref_axis',(1.,0.,0.));
#447=DIRECTION('',(-4.11893292020493E-17,-0.941741911594853,-0.336336396998113));
#448=DIRECTION('center_axis',(0.,-1.,0.));
#449=DIRECTION('ref_axis',(0.,0.,-1.));
#450=DIRECTION('center_axis',(0.,1.,0.));
#451=DIRECTION('ref_axis',(1.,0.,0.));
#452=DIRECTION('center_axis',(0.,1.,0.));
#453=DIRECTION('ref_axis',(0.,0.,1.));
#454=DIRECTION('center_axis',(0.,1.,0.));
#455=DIRECTION('ref_axis',(1.,0.,0.));
#456=DIRECTION('',(0.,-1.,0.));
#457=DIRECTION('center_axis',(0.,-1.,0.));
#458=DIRECTION('ref_axis',(0.,0.,1.));
#459=DIRECTION('center_axis',(0.,1.,0.));
#460=DIRECTION('ref_axis',(1.,0.,0.));
#461=DIRECTION('',(-4.11893292020493E-17,-0.941741911594853,-0.336336396998113));
#462=DIRECTION('center_axis',(0.,-1.,0.));
#463=DIRECTION('ref_axis',(0.,0.,-1.));
#464=DIRECTION('center_axis',(0.,1.,0.));
#465=DIRECTION('ref_axis',(1.,0.,0.));
#466=DIRECTION('center_axis',(0.,1.,0.));
#467=DIRECTION('ref_axis',(0.,0.,1.));
#468=DIRECTION('center_axis',(0.,1.,0.));
#469=DIRECTION('ref_axis',(1.,0.,0.));
#470=DIRECTION('',(0.,-1.,0.));
#471=DIRECTION('center_axis',(0.,-1.,0.));
#472=DIRECTION('ref_axis',(0.,0.,1.));
#473=DIRECTION('center_axis',(0.,1.,0.));
#474=DIRECTION('ref_axis',(1.,0.,0.));
#475=DIRECTION('',(-4.11893292020492E-17,-0.941741911594853,-0.336336396998112));
#476=DIRECTION('center_axis',(0.,-1.,0.));
#477=DIRECTION('ref_axis',(0.,0.,-1.));
#478=DIRECTION('center_axis',(0.,1.,0.));
#479=DIRECTION('ref_axis',(1.,0.,0.));
#480=DIRECTION('center_axis',(0.,-1.,0.));
#481=DIRECTION('ref_axis',(0.,0.,1.));
#482=DIRECTION('center_axis',(0.,1.,0.));
#483=DIRECTION('ref_axis',(1.,0.,0.));
#484=DIRECTION('',(-2.87351777815971E-17,-0.972082208573276,-0.234640533103941));
#485=DIRECTION('center_axis',(0.,1.,0.));
#486=DIRECTION('ref_axis',(0.,0.,1.));
#487=DIRECTION('',(0.,-1.,0.));
#488=DIRECTION('center_axis',(0.,1.,0.));
#489=DIRECTION('ref_axis',(0.,0.,1.));
#490=DIRECTION('center_axis',(0.,-1.,0.));
#491=DIRECTION('ref_axis',(1.,0.,0.));
#492=DIRECTION('center_axis',(0.,-1.,0.));
#493=DIRECTION('ref_axis',(1.,0.,0.));
#494=DIRECTION('center_axis',(0.,-1.,0.));
#495=DIRECTION('ref_axis',(1.,0.,0.));
#496=DIRECTION('',(0.707106781186548,0.707106781186547,8.65956056235493E-17));
#497=DIRECTION('center_axis',(0.,-1.,0.));
#498=DIRECTION('ref_axis',(1.,0.,0.));
#499=DIRECTION('center_axis',(0.,-1.,0.));
#500=DIRECTION('ref_axis',(1.,0.,0.));
#501=DIRECTION('',(0.,1.,0.));
#502=DIRECTION('center_axis',(0.,1.,0.));
#503=DIRECTION('ref_axis',(1.,0.,0.));
#504=DIRECTION('center_axis',(0.,-1.,0.));
#505=DIRECTION('ref_axis',(1.,0.,0.));
#506=DIRECTION('',(-0.207911690817759,0.978147600733806,-2.54618386665282E-17));
#507=DIRECTION('center_axis',(0.,1.,0.));
#508=DIRECTION('ref_axis',(1.,0.,0.));
#509=DIRECTION('center_axis',(0.,-1.,0.));
#510=DIRECTION('ref_axis',(1.,0.,0.));
#511=DIRECTION('',(-0.573576436351046,0.819152044288992,-7.02428546843654E-17));
#512=DIRECTION('center_axis',(0.,-1.,0.));
#513=DIRECTION('ref_axis',(0.,0.,-1.));
#514=CARTESIAN_POINT('',(0.,0.,0.));
#515=CARTESIAN_POINT('Origin',(0.,20.,0.));
#516=CARTESIAN_POINT('',(5.05,20.,-6.18446633569413E-16));
#517=CARTESIAN_POINT('Origin',(0.,20.,0.));
#518=CARTESIAN_POINT('',(5.05,10.,-6.18446633569413E-16));
#519=CARTESIAN_POINT('',(5.05,20.,6.18446633569413E-16));
#520=CARTESIAN_POINT('Origin',(0.,10.,0.));
#521=CARTESIAN_POINT('Origin',(-2.34742339039226E-16,10.,0.));
#522=CARTESIAN_POINT('',(-4.22503145705837E-16,10.,-3.45));
#523=CARTESIAN_POINT('Origin',(0.,10.,0.));
#524=CARTESIAN_POINT('Origin',(0.,38.75,0.));
#525=CARTESIAN_POINT('',(-2.44929359829474E-16,40.,-2.00000000000003));
#526=CARTESIAN_POINT('Origin',(0.,40.,0.));
#527=CARTESIAN_POINT('',(-3.36777869765524E-16,37.5,-2.75000000000002));
#528=CARTESIAN_POINT('',(-2.90853614797499E-16,38.75,-2.37500000000002));
#529=CARTESIAN_POINT('Origin',(0.,37.5,0.));
#530=CARTESIAN_POINT('Origin',(0.,40.,2.63677968348475E-14));
#531=CARTESIAN_POINT('Origin',(0.,20.5,0.));
#532=CARTESIAN_POINT('',(-4.22503145705837E-16,21.,-3.45));
#533=CARTESIAN_POINT('Origin',(0.,21.,0.));
#534=CARTESIAN_POINT('',(-4.22503145705837E-16,20.5,-3.45));
#535=CARTESIAN_POINT('Origin',(0.,21.,3.14999999999981));
#536=CARTESIAN_POINT('',(-3.857637417314E-16,21.,-3.14999999999986));
#537=CARTESIAN_POINT('Origin',(0.,21.,0.));
#538=CARTESIAN_POINT('Origin',(0.,22.25,0.));
#539=CARTESIAN_POINT('',(-3.857637417314E-16,23.5,-3.14999999999986));
#540=CARTESIAN_POINT('Origin',(0.,23.5,0.));
#541=CARTESIAN_POINT('',(-3.857637417314E-16,22.25,-3.14999999999986));
#542=CARTESIAN_POINT('Origin',(0.,23.5,3.44999999999992));
#543=CARTESIAN_POINT('',(-4.2250314570583E-16,23.5,-3.44999999999995));
#544=CARTESIAN_POINT('Origin',(0.,23.5,0.));
#545=CARTESIAN_POINT('Origin',(0.,24.,0.));
#546=CARTESIAN_POINT('',(-4.2250314570583E-16,24.5,-3.44999999999995));
#547=CARTESIAN_POINT('Origin',(0.,24.5,0.));
#548=CARTESIAN_POINT('',(-4.2250314570583E-16,24.,-3.44999999999995));
#549=CARTESIAN_POINT('Origin',(0.,24.85,0.));
#550=CARTESIAN_POINT('',(-3.91886975727153E-16,25.2,-3.2));
#551=CARTESIAN_POINT('Origin',(0.,25.2,0.));
#552=CARTESIAN_POINT('',(-4.07195060716493E-16,24.85,-3.32499999999998));
#553=CARTESIAN_POINT('Origin',(0.,25.2,3.45));
#554=CARTESIAN_POINT('',(-4.2250314570584E-16,25.2,-3.45000000000002));
#555=CARTESIAN_POINT('Origin',(0.,25.2,0.));
#556=CARTESIAN_POINT('Origin',(0.,25.7,0.));
#557=CARTESIAN_POINT('',(-4.2250314570584E-16,26.2,-3.45000000000002));
#558=CARTESIAN_POINT('Origin',(0.,26.2,0.));
#559=CARTESIAN_POINT('',(-4.2250314570584E-16,25.7,-3.45000000000002));
#560=CARTESIAN_POINT('Origin',(0.,26.55,0.));
#561=CARTESIAN_POINT('',(-3.91886975727163E-16,26.9,-3.20000000000008));
#562=CARTESIAN_POINT('Origin',(0.,26.9,0.));
#563=CARTESIAN_POINT('',(-4.07195060716503E-16,26.55,-3.32500000000006));
#564=CARTESIAN_POINT('Origin',(0.,26.9,3.45000000000008));
#565=CARTESIAN_POINT('',(-4.22503145705849E-16,26.9,-3.4500000000001));
#566=CARTESIAN_POINT('Origin',(0.,26.9,0.));
#567=CARTESIAN_POINT('Origin',(0.,27.4,0.));
#568=CARTESIAN_POINT('',(-4.22503145705849E-16,27.9,-3.4500000000001));
#569=CARTESIAN_POINT('Origin',(0.,27.9,0.));
#570=CARTESIAN_POINT('',(-4.22503145705849E-16,27.4,-3.4500000000001));
#571=CARTESIAN_POINT('Origin',(0.,28.25,0.));
#572=CARTESIAN_POINT('',(-3.91886975727172E-16,28.6,-3.20000000000016));
#573=CARTESIAN_POINT('Origin',(0.,28.6,0.));
#574=CARTESIAN_POINT('',(-4.07195060716512E-16,28.25,-3.32500000000014));
#575=CARTESIAN_POINT('Origin',(0.,28.6,3.45000000000016));
#576=CARTESIAN_POINT('',(-4.22503145705856E-16,28.6,-3.45000000000016));
#577=CARTESIAN_POINT('Origin',(0.,28.6,0.));
#578=CARTESIAN_POINT('Origin',(0.,30.05,0.));
#579=CARTESIAN_POINT('',(-3.36777869765524E-16,31.5,-2.75000000000002));
#580=CARTESIAN_POINT('Origin',(0.,31.5,0.));
#581=CARTESIAN_POINT('',(-3.7964050773569E-16,30.05,-3.10000000000009));
#582=CARTESIAN_POINT('Origin',(0.,34.5,0.));
#583=CARTESIAN_POINT('',(-3.36777869765524E-16,34.5,-2.75000000000002));
#584=CARTESIAN_POINT('Origin',(7.5,20.,0.));
#585=CARTESIAN_POINT('',(-7.5,20.,-9.18485099360515E-16));
#586=CARTESIAN_POINT('Origin',(0.,20.,0.));
#587=CARTESIAN_POINT('Origin',(0.,19.,0.));
#588=CARTESIAN_POINT('',(-9.5,18.,-1.16341445918999E-15));
#589=CARTESIAN_POINT('Origin',(0.,18.,0.));
#590=CARTESIAN_POINT('',(-8.5,19.,-1.04094977927525E-15));
#591=CARTESIAN_POINT('Origin',(0.,11.5,0.));
#592=CARTESIAN_POINT('',(-9.5,5.,-1.16341445918999E-15));
#593=CARTESIAN_POINT('Origin',(0.,5.,0.));
#594=CARTESIAN_POINT('',(-9.5,11.5,-1.16341445918999E-15));
#595=CARTESIAN_POINT('Origin',(0.,3.20461992768507,0.));
#596=CARTESIAN_POINT('',(-8.73676036987573,1.40923985537013,-1.06994456218858E-15));
#597=CARTESIAN_POINT('Origin',(0.,1.40923985537013,0.));
#598=CARTESIAN_POINT('',(-9.11838018493786,3.20461992768507,-1.11667951068928E-15));
#599=CARTESIAN_POINT('Origin',(0.,0.704619927685066,0.));
#600=CARTESIAN_POINT('',(-7.75,-1.38777878078145E-16,-9.49101269339199E-16));
#601=CARTESIAN_POINT('Origin',(0.,0.,0.));
#602=CARTESIAN_POINT('',(-8.24338018493786,0.704619927685066,-1.00952291576389E-15));
#603=CARTESIAN_POINT('Origin',(0.,0.,0.));
#604=UNCERTAINTY_MEASURE_WITH_UNIT(LENGTH_MEASURE(0.01),#608,
'DISTANCE_ACCURACY_VALUE',
'Maximum model space distance between geometric entities at asserted c
onnectivities');
#605=UNCERTAINTY_MEASURE_WITH_UNIT(LENGTH_MEASURE(0.01),#608,
'DISTANCE_ACCURACY_VALUE',
'Maximum model space distance between geometric entities at asserted c
onnectivities');
#606=(
GEOMETRIC_REPRESENTATION_CONTEXT(3)
GLOBAL_UNCERTAINTY_ASSIGNED_CONTEXT((#604))
GLOBAL_UNIT_ASSIGNED_CONTEXT((#608,#610,#611))
REPRESENTATION_CONTEXT('','3D')
);
#607=(
GEOMETRIC_REPRESENTATION_CONTEXT(3)
GLOBAL_UNCERTAINTY_ASSIGNED_CONTEXT((#605))
GLOBAL_UNIT_ASSIGNED_CONTEXT((#608,#610,#611))
REPRESENTATION_CONTEXT('','3D')
);
#608=(
LENGTH_UNIT()
NAMED_UNIT(*)
SI_UNIT(.MILLI.,.METRE.)
);
#609=(
LENGTH_UNIT()
NAMED_UNIT(*)
SI_UNIT(.CENTI.,.METRE.)
);
#610=(
NAMED_UNIT(*)
PLANE_ANGLE_UNIT()
SI_UNIT($,.RADIAN.)
);
#611=(
NAMED_UNIT(*)
SI_UNIT($,.STERADIAN.)
SOLID_ANGLE_UNIT()
);
#612=SHAPE_DEFINITION_REPRESENTATION(#613,#614);
#613=PRODUCT_DEFINITION_SHAPE('',$,#616);
#614=SHAPE_REPRESENTATION('',(#348),#606);
#615=DESIGN_CONTEXT('part definition',#620,'design');
#616=PRODUCT_DEFINITION('pene bas','22855',#617,#615);
#617=PRODUCT_DEFINITION_FORMATION('',$,#622);
#618=PRODUCT_RELATED_PRODUCT_CATEGORY('22855','22855',(#622));
#619=APPLICATION_PROTOCOL_DEFINITION('international standard',
'ap203_configuration_controlled_3d_design_of_mechanical_parts_and_asse
mblies_mim_lf',2004,#620);
#620=APPLICATION_CONTEXT(
'Configuration Controlled 3D Design of Mechanical Parts and Assemblies');
#621=MECHANICAL_CONTEXT('part definition',#620,'mechanical');
#622=PRODUCT('pene bas','22855',$,(#621));
#623=PRESENTATION_STYLE_ASSIGNMENT((#624));
#624=SURFACE_STYLE_USAGE(.BOTH.,#627);
#625=SURFACE_STYLE_RENDERING_WITH_PROPERTIES($,#631,(#626));
#626=SURFACE_STYLE_TRANSPARENT(0.);
#627=SURFACE_SIDE_STYLE('',(#628,#625));
#628=SURFACE_STYLE_FILL_AREA(#629);
#629=FILL_AREA_STYLE('',(#630));
#630=FILL_AREA_STYLE_COLOUR('',#631);
#631=COLOUR_RGB('',0.92156862745098,0.92156862745098,0.92156862745098);
ENDSEC;
END-ISO-10303-21;
