ISO-10303-21;
HEADER;
/* Generated by software containing ST-Developer
 * from STEP Tools, Inc. (www.steptools.com) 
 */

FILE_DESCRIPTION(
/* description */ (''),
/* implementation_level */ '2;1');

FILE_NAME(
/* name */ 'R:\\BE\\Transfert-temporaire\\23365.stp',
/* time_stamp */ '2019-08-13T14:15:13+02:00',
/* author */ ('Michel'),
/* organization */ (''),
/* preprocessor_version */ 'ST-DEVELOPER v17.2',
/* originating_system */ 'Autodesk Inventor 2019',
/* authorisation */ '');

FILE_SCHEMA (('AUTOMOTIVE_DESIGN { 1 0 10303 214 3 1 1 }'));
ENDSEC;

DATA;
#10=MECHANICAL_DESIGN_GEOMETRIC_PRESENTATION_REPRESENTATION('',(#17),#545);
#11=ITEM_DEFINED_TRANSFORMATION($,$,#345,#371);
#12=(
REPRESENTATION_RELATIONSHIP($,$,#556,#555)
REPRESENTATION_RELATIONSHIP_WITH_TRANSFORMATION(#11)
SHAPE_REPRESENTATION_RELATIONSHIP()
);
#13=CONTEXT_DEPENDENT_SHAPE_REPRESENTATION(#12,#554);
#14=NEXT_ASSEMBLY_USAGE_OCCURRENCE('23364:1','23364:1','23364:1',#558,#559,
'23364:1');
#15=SHAPE_REPRESENTATION_RELATIONSHIP('SRR','None',#556,#16);
#16=ADVANCED_BREP_SHAPE_REPRESENTATION('',(#18),#544);
#17=STYLED_ITEM('',(#323),#18);
#18=MANIFOLD_SOLID_BREP('Solide1',#310);
#19=FACE_BOUND('',#62,.T.);
#20=FACE_BOUND('',#63,.T.);
#21=FACE_BOUND('',#64,.T.);
#22=FACE_BOUND('',#65,.T.);
#23=FACE_BOUND('',#66,.T.);
#24=FACE_BOUND('',#71,.T.);
#25=FACE_BOUND('',#72,.T.);
#26=FACE_BOUND('',#73,.T.);
#27=FACE_BOUND('',#74,.T.);
#28=FACE_BOUND('',#75,.T.);
#29=PLANE('',#361);
#30=PLANE('',#362);
#31=PLANE('',#363);
#32=PLANE('',#364);
#33=PLANE('',#365);
#34=PLANE('',#366);
#35=PLANE('',#367);
#36=PLANE('',#368);
#37=PLANE('',#369);
#38=PLANE('',#370);
#39=FACE_OUTER_BOUND('',#54,.T.);
#40=FACE_OUTER_BOUND('',#55,.T.);
#41=FACE_OUTER_BOUND('',#56,.T.);
#42=FACE_OUTER_BOUND('',#57,.T.);
#43=FACE_OUTER_BOUND('',#58,.T.);
#44=FACE_OUTER_BOUND('',#59,.T.);
#45=FACE_OUTER_BOUND('',#60,.T.);
#46=FACE_OUTER_BOUND('',#61,.T.);
#47=FACE_OUTER_BOUND('',#67,.T.);
#48=FACE_OUTER_BOUND('',#68,.T.);
#49=FACE_OUTER_BOUND('',#69,.T.);
#50=FACE_OUTER_BOUND('',#70,.T.);
#51=FACE_OUTER_BOUND('',#76,.T.);
#52=FACE_OUTER_BOUND('',#77,.T.);
#53=FACE_OUTER_BOUND('',#78,.T.);
#54=EDGE_LOOP('',(#212,#213,#214,#215));
#55=EDGE_LOOP('',(#216,#217,#218,#219));
#56=EDGE_LOOP('',(#220,#221,#222,#223));
#57=EDGE_LOOP('',(#224,#225,#226,#227));
#58=EDGE_LOOP('',(#228,#229,#230,#231));
#59=EDGE_LOOP('',(#232,#233,#234,#235));
#60=EDGE_LOOP('',(#236,#237,#238,#239));
#61=EDGE_LOOP('',(#240,#241,#242,#243));
#62=EDGE_LOOP('',(#244));
#63=EDGE_LOOP('',(#245));
#64=EDGE_LOOP('',(#246));
#65=EDGE_LOOP('',(#247));
#66=EDGE_LOOP('',(#248));
#67=EDGE_LOOP('',(#249,#250,#251,#252));
#68=EDGE_LOOP('',(#253,#254,#255,#256));
#69=EDGE_LOOP('',(#257,#258,#259,#260));
#70=EDGE_LOOP('',(#261,#262,#263,#264));
#71=EDGE_LOOP('',(#265));
#72=EDGE_LOOP('',(#266));
#73=EDGE_LOOP('',(#267));
#74=EDGE_LOOP('',(#268));
#75=EDGE_LOOP('',(#269));
#76=EDGE_LOOP('',(#270,#271,#272,#273));
#77=EDGE_LOOP('',(#274,#275,#276,#277,#278,#279,#280,#281));
#78=EDGE_LOOP('',(#282,#283,#284,#285,#286,#287,#288,#289));
#79=LINE('',#463,#108);
#80=LINE('',#469,#109);
#81=LINE('',#475,#110);
#82=LINE('',#481,#111);
#83=LINE('',#487,#112);
#84=LINE('',#492,#113);
#85=LINE('',#494,#114);
#86=LINE('',#496,#115);
#87=LINE('',#497,#116);
#88=LINE('',#500,#117);
#89=LINE('',#502,#118);
#90=LINE('',#503,#119);
#91=LINE('',#506,#120);
#92=LINE('',#508,#121);
#93=LINE('',#509,#122);
#94=LINE('',#512,#123);
#95=LINE('',#514,#124);
#96=LINE('',#515,#125);
#97=LINE('',#518,#126);
#98=LINE('',#520,#127);
#99=LINE('',#521,#128);
#100=LINE('',#524,#129);
#101=LINE('',#526,#130);
#102=LINE('',#527,#131);
#103=LINE('',#530,#132);
#104=LINE('',#532,#133);
#105=LINE('',#533,#134);
#106=LINE('',#535,#135);
#107=LINE('',#536,#136);
#108=VECTOR('',#380,2.6);
#109=VECTOR('',#387,2.6);
#110=VECTOR('',#394,2.6);
#111=VECTOR('',#401,2.6);
#112=VECTOR('',#408,2.6);
#113=VECTOR('',#413,10.);
#114=VECTOR('',#414,10.);
#115=VECTOR('',#415,10.);
#116=VECTOR('',#416,10.);
#117=VECTOR('',#419,10.);
#118=VECTOR('',#420,10.);
#119=VECTOR('',#421,10.);
#120=VECTOR('',#424,10.);
#121=VECTOR('',#425,10.);
#122=VECTOR('',#426,10.);
#123=VECTOR('',#429,10.);
#124=VECTOR('',#430,10.);
#125=VECTOR('',#431,10.);
#126=VECTOR('',#434,10.);
#127=VECTOR('',#435,10.);
#128=VECTOR('',#436,10.);
#129=VECTOR('',#439,10.);
#130=VECTOR('',#440,10.);
#131=VECTOR('',#441,10.);
#132=VECTOR('',#444,10.);
#133=VECTOR('',#445,10.);
#134=VECTOR('',#446,10.);
#135=VECTOR('',#449,10.);
#136=VECTOR('',#450,10.);
#137=CIRCLE('',#347,2.6);
#138=CIRCLE('',#348,2.6);
#139=CIRCLE('',#350,2.6);
#140=CIRCLE('',#351,2.6);
#141=CIRCLE('',#353,2.6);
#142=CIRCLE('',#354,2.6);
#143=CIRCLE('',#356,2.6);
#144=CIRCLE('',#357,2.6);
#145=CIRCLE('',#359,2.6);
#146=CIRCLE('',#360,2.6);
#147=VERTEX_POINT('',#460);
#148=VERTEX_POINT('',#462);
#149=VERTEX_POINT('',#466);
#150=VERTEX_POINT('',#468);
#151=VERTEX_POINT('',#472);
#152=VERTEX_POINT('',#474);
#153=VERTEX_POINT('',#478);
#154=VERTEX_POINT('',#480);
#155=VERTEX_POINT('',#484);
#156=VERTEX_POINT('',#486);
#157=VERTEX_POINT('',#490);
#158=VERTEX_POINT('',#491);
#159=VERTEX_POINT('',#493);
#160=VERTEX_POINT('',#495);
#161=VERTEX_POINT('',#499);
#162=VERTEX_POINT('',#501);
#163=VERTEX_POINT('',#505);
#164=VERTEX_POINT('',#507);
#165=VERTEX_POINT('',#511);
#166=VERTEX_POINT('',#513);
#167=VERTEX_POINT('',#517);
#168=VERTEX_POINT('',#519);
#169=VERTEX_POINT('',#523);
#170=VERTEX_POINT('',#525);
#171=VERTEX_POINT('',#529);
#172=VERTEX_POINT('',#531);
#173=EDGE_CURVE('',#147,#147,#137,.T.);
#174=EDGE_CURVE('',#147,#148,#79,.T.);
#175=EDGE_CURVE('',#148,#148,#138,.T.);
#176=EDGE_CURVE('',#149,#149,#139,.T.);
#177=EDGE_CURVE('',#149,#150,#80,.T.);
#178=EDGE_CURVE('',#150,#150,#140,.T.);
#179=EDGE_CURVE('',#151,#151,#141,.T.);
#180=EDGE_CURVE('',#151,#152,#81,.T.);
#181=EDGE_CURVE('',#152,#152,#142,.T.);
#182=EDGE_CURVE('',#153,#153,#143,.T.);
#183=EDGE_CURVE('',#153,#154,#82,.T.);
#184=EDGE_CURVE('',#154,#154,#144,.T.);
#185=EDGE_CURVE('',#155,#155,#145,.T.);
#186=EDGE_CURVE('',#155,#156,#83,.T.);
#187=EDGE_CURVE('',#156,#156,#146,.T.);
#188=EDGE_CURVE('',#157,#158,#84,.T.);
#189=EDGE_CURVE('',#158,#159,#85,.T.);
#190=EDGE_CURVE('',#160,#159,#86,.T.);
#191=EDGE_CURVE('',#157,#160,#87,.T.);
#192=EDGE_CURVE('',#161,#157,#88,.T.);
#193=EDGE_CURVE('',#162,#160,#89,.T.);
#194=EDGE_CURVE('',#161,#162,#90,.T.);
#195=EDGE_CURVE('',#163,#161,#91,.T.);
#196=EDGE_CURVE('',#164,#162,#92,.T.);
#197=EDGE_CURVE('',#163,#164,#93,.T.);
#198=EDGE_CURVE('',#165,#163,#94,.T.);
#199=EDGE_CURVE('',#166,#164,#95,.T.);
#200=EDGE_CURVE('',#165,#166,#96,.T.);
#201=EDGE_CURVE('',#167,#165,#97,.T.);
#202=EDGE_CURVE('',#168,#166,#98,.T.);
#203=EDGE_CURVE('',#167,#168,#99,.T.);
#204=EDGE_CURVE('',#169,#167,#100,.T.);
#205=EDGE_CURVE('',#170,#168,#101,.T.);
#206=EDGE_CURVE('',#169,#170,#102,.T.);
#207=EDGE_CURVE('',#171,#169,#103,.T.);
#208=EDGE_CURVE('',#172,#170,#104,.T.);
#209=EDGE_CURVE('',#171,#172,#105,.T.);
#210=EDGE_CURVE('',#158,#171,#106,.T.);
#211=EDGE_CURVE('',#159,#172,#107,.T.);
#212=ORIENTED_EDGE('',*,*,#173,.F.);
#213=ORIENTED_EDGE('',*,*,#174,.T.);
#214=ORIENTED_EDGE('',*,*,#175,.F.);
#215=ORIENTED_EDGE('',*,*,#174,.F.);
#216=ORIENTED_EDGE('',*,*,#176,.F.);
#217=ORIENTED_EDGE('',*,*,#177,.T.);
#218=ORIENTED_EDGE('',*,*,#178,.F.);
#219=ORIENTED_EDGE('',*,*,#177,.F.);
#220=ORIENTED_EDGE('',*,*,#179,.F.);
#221=ORIENTED_EDGE('',*,*,#180,.T.);
#222=ORIENTED_EDGE('',*,*,#181,.F.);
#223=ORIENTED_EDGE('',*,*,#180,.F.);
#224=ORIENTED_EDGE('',*,*,#182,.F.);
#225=ORIENTED_EDGE('',*,*,#183,.T.);
#226=ORIENTED_EDGE('',*,*,#184,.F.);
#227=ORIENTED_EDGE('',*,*,#183,.F.);
#228=ORIENTED_EDGE('',*,*,#185,.F.);
#229=ORIENTED_EDGE('',*,*,#186,.T.);
#230=ORIENTED_EDGE('',*,*,#187,.F.);
#231=ORIENTED_EDGE('',*,*,#186,.F.);
#232=ORIENTED_EDGE('',*,*,#188,.T.);
#233=ORIENTED_EDGE('',*,*,#189,.T.);
#234=ORIENTED_EDGE('',*,*,#190,.F.);
#235=ORIENTED_EDGE('',*,*,#191,.F.);
#236=ORIENTED_EDGE('',*,*,#192,.T.);
#237=ORIENTED_EDGE('',*,*,#191,.T.);
#238=ORIENTED_EDGE('',*,*,#193,.F.);
#239=ORIENTED_EDGE('',*,*,#194,.F.);
#240=ORIENTED_EDGE('',*,*,#195,.T.);
#241=ORIENTED_EDGE('',*,*,#194,.T.);
#242=ORIENTED_EDGE('',*,*,#196,.F.);
#243=ORIENTED_EDGE('',*,*,#197,.F.);
#244=ORIENTED_EDGE('',*,*,#173,.T.);
#245=ORIENTED_EDGE('',*,*,#176,.T.);
#246=ORIENTED_EDGE('',*,*,#179,.T.);
#247=ORIENTED_EDGE('',*,*,#182,.T.);
#248=ORIENTED_EDGE('',*,*,#185,.T.);
#249=ORIENTED_EDGE('',*,*,#198,.T.);
#250=ORIENTED_EDGE('',*,*,#197,.T.);
#251=ORIENTED_EDGE('',*,*,#199,.F.);
#252=ORIENTED_EDGE('',*,*,#200,.F.);
#253=ORIENTED_EDGE('',*,*,#201,.T.);
#254=ORIENTED_EDGE('',*,*,#200,.T.);
#255=ORIENTED_EDGE('',*,*,#202,.F.);
#256=ORIENTED_EDGE('',*,*,#203,.F.);
#257=ORIENTED_EDGE('',*,*,#204,.T.);
#258=ORIENTED_EDGE('',*,*,#203,.T.);
#259=ORIENTED_EDGE('',*,*,#205,.F.);
#260=ORIENTED_EDGE('',*,*,#206,.F.);
#261=ORIENTED_EDGE('',*,*,#207,.T.);
#262=ORIENTED_EDGE('',*,*,#206,.T.);
#263=ORIENTED_EDGE('',*,*,#208,.F.);
#264=ORIENTED_EDGE('',*,*,#209,.F.);
#265=ORIENTED_EDGE('',*,*,#175,.T.);
#266=ORIENTED_EDGE('',*,*,#178,.T.);
#267=ORIENTED_EDGE('',*,*,#181,.T.);
#268=ORIENTED_EDGE('',*,*,#184,.T.);
#269=ORIENTED_EDGE('',*,*,#187,.T.);
#270=ORIENTED_EDGE('',*,*,#210,.T.);
#271=ORIENTED_EDGE('',*,*,#209,.T.);
#272=ORIENTED_EDGE('',*,*,#211,.F.);
#273=ORIENTED_EDGE('',*,*,#189,.F.);
#274=ORIENTED_EDGE('',*,*,#211,.T.);
#275=ORIENTED_EDGE('',*,*,#208,.T.);
#276=ORIENTED_EDGE('',*,*,#205,.T.);
#277=ORIENTED_EDGE('',*,*,#202,.T.);
#278=ORIENTED_EDGE('',*,*,#199,.T.);
#279=ORIENTED_EDGE('',*,*,#196,.T.);
#280=ORIENTED_EDGE('',*,*,#193,.T.);
#281=ORIENTED_EDGE('',*,*,#190,.T.);
#282=ORIENTED_EDGE('',*,*,#210,.F.);
#283=ORIENTED_EDGE('',*,*,#188,.F.);
#284=ORIENTED_EDGE('',*,*,#192,.F.);
#285=ORIENTED_EDGE('',*,*,#195,.F.);
#286=ORIENTED_EDGE('',*,*,#198,.F.);
#287=ORIENTED_EDGE('',*,*,#201,.F.);
#288=ORIENTED_EDGE('',*,*,#204,.F.);
#289=ORIENTED_EDGE('',*,*,#207,.F.);
#290=CYLINDRICAL_SURFACE('',#346,2.6);
#291=CYLINDRICAL_SURFACE('',#349,2.6);
#292=CYLINDRICAL_SURFACE('',#352,2.6);
#293=CYLINDRICAL_SURFACE('',#355,2.6);
#294=CYLINDRICAL_SURFACE('',#358,2.6);
#295=ADVANCED_FACE('',(#39),#290,.F.);
#296=ADVANCED_FACE('',(#40),#291,.F.);
#297=ADVANCED_FACE('',(#41),#292,.F.);
#298=ADVANCED_FACE('',(#42),#293,.F.);
#299=ADVANCED_FACE('',(#43),#294,.F.);
#300=ADVANCED_FACE('',(#44),#29,.T.);
#301=ADVANCED_FACE('',(#45),#30,.T.);
#302=ADVANCED_FACE('',(#46,#19,#20,#21,#22,#23),#31,.T.);
#303=ADVANCED_FACE('',(#47),#32,.T.);
#304=ADVANCED_FACE('',(#48),#33,.T.);
#305=ADVANCED_FACE('',(#49),#34,.T.);
#306=ADVANCED_FACE('',(#50,#24,#25,#26,#27,#28),#35,.T.);
#307=ADVANCED_FACE('',(#51),#36,.T.);
#308=ADVANCED_FACE('',(#52),#37,.T.);
#309=ADVANCED_FACE('',(#53),#38,.F.);
#310=CLOSED_SHELL('',(#295,#296,#297,#298,#299,#300,#301,#302,#303,#304,
#305,#306,#307,#308,#309));
#311=DERIVED_UNIT_ELEMENT(#313,1.);
#312=DERIVED_UNIT_ELEMENT(#547,3.);
#313=(
MASS_UNIT()
NAMED_UNIT(*)
SI_UNIT($,.GRAM.)
);
#314=DERIVED_UNIT((#311,#312));
#315=MEASURE_REPRESENTATION_ITEM('density measure',
POSITIVE_RATIO_MEASURE(2.71),#314);
#316=PROPERTY_DEFINITION_REPRESENTATION(#321,#318);
#317=PROPERTY_DEFINITION_REPRESENTATION(#322,#319);
#318=REPRESENTATION('material name',(#320),#544);
#319=REPRESENTATION('density',(#315),#544);
#320=DESCRIPTIVE_REPRESENTATION_ITEM('Aluminium 6061','Aluminium 6061');
#321=PROPERTY_DEFINITION('material property','material name',#559);
#322=PROPERTY_DEFINITION('material property','density of part',#559);
#323=PRESENTATION_STYLE_ASSIGNMENT((#324));
#324=SURFACE_STYLE_USAGE(.BOTH.,#327);
#325=SURFACE_STYLE_RENDERING_WITH_PROPERTIES($,#331,(#326));
#326=SURFACE_STYLE_TRANSPARENT(0.);
#327=SURFACE_SIDE_STYLE('',(#328,#325));
#328=SURFACE_STYLE_FILL_AREA(#329);
#329=FILL_AREA_STYLE('',(#330));
#330=FILL_AREA_STYLE_COLOUR('',#331);
#331=COLOUR_RGB('',0.898039215686275,0.898039215686275,0.898039215686275);
#332=DATE_TIME_ROLE('creation_date');
#333=DATE_TIME_ROLE('creation_date');
#334=APPLIED_DATE_AND_TIME_ASSIGNMENT(#336,#332,(#558));
#335=APPLIED_DATE_AND_TIME_ASSIGNMENT(#337,#333,(#559));
#336=DATE_AND_TIME(#338,#340);
#337=DATE_AND_TIME(#339,#341);
#338=CALENDAR_DATE(2015,11,6);
#339=CALENDAR_DATE(2014,18,6);
#340=LOCAL_TIME(14,42,28.,#342);
#341=LOCAL_TIME(12,35,26.,#343);
#342=COORDINATED_UNIVERSAL_TIME_OFFSET(0,0,.BEHIND.);
#343=COORDINATED_UNIVERSAL_TIME_OFFSET(0,0,.BEHIND.);
#344=AXIS2_PLACEMENT_3D('placement',#457,#372,#373);
#345=AXIS2_PLACEMENT_3D('placement',#458,#374,#375);
#346=AXIS2_PLACEMENT_3D('',#459,#376,#377);
#347=AXIS2_PLACEMENT_3D('',#461,#378,#379);
#348=AXIS2_PLACEMENT_3D('',#464,#381,#382);
#349=AXIS2_PLACEMENT_3D('',#465,#383,#384);
#350=AXIS2_PLACEMENT_3D('',#467,#385,#386);
#351=AXIS2_PLACEMENT_3D('',#470,#388,#389);
#352=AXIS2_PLACEMENT_3D('',#471,#390,#391);
#353=AXIS2_PLACEMENT_3D('',#473,#392,#393);
#354=AXIS2_PLACEMENT_3D('',#476,#395,#396);
#355=AXIS2_PLACEMENT_3D('',#477,#397,#398);
#356=AXIS2_PLACEMENT_3D('',#479,#399,#400);
#357=AXIS2_PLACEMENT_3D('',#482,#402,#403);
#358=AXIS2_PLACEMENT_3D('',#483,#404,#405);
#359=AXIS2_PLACEMENT_3D('',#485,#406,#407);
#360=AXIS2_PLACEMENT_3D('',#488,#409,#410);
#361=AXIS2_PLACEMENT_3D('',#489,#411,#412);
#362=AXIS2_PLACEMENT_3D('',#498,#417,#418);
#363=AXIS2_PLACEMENT_3D('',#504,#422,#423);
#364=AXIS2_PLACEMENT_3D('',#510,#427,#428);
#365=AXIS2_PLACEMENT_3D('',#516,#432,#433);
#366=AXIS2_PLACEMENT_3D('',#522,#437,#438);
#367=AXIS2_PLACEMENT_3D('',#528,#442,#443);
#368=AXIS2_PLACEMENT_3D('',#534,#447,#448);
#369=AXIS2_PLACEMENT_3D('',#537,#451,#452);
#370=AXIS2_PLACEMENT_3D('',#538,#453,#454);
#371=AXIS2_PLACEMENT_3D('',#539,#455,#456);
#372=DIRECTION('axis',(0.,0.,1.));
#373=DIRECTION('refdir',(1.,0.,0.));
#374=DIRECTION('axis',(0.,0.,1.));
#375=DIRECTION('refdir',(1.,0.,0.));
#376=DIRECTION('center_axis',(0.,0.,-1.));
#377=DIRECTION('ref_axis',(-1.,0.,0.));
#378=DIRECTION('center_axis',(0.,0.,-1.));
#379=DIRECTION('ref_axis',(-1.,0.,0.));
#380=DIRECTION('',(0.,0.,-1.));
#381=DIRECTION('center_axis',(0.,0.,1.));
#382=DIRECTION('ref_axis',(-1.,0.,0.));
#383=DIRECTION('center_axis',(0.,0.,-1.));
#384=DIRECTION('ref_axis',(-1.,0.,0.));
#385=DIRECTION('center_axis',(0.,0.,-1.));
#386=DIRECTION('ref_axis',(-1.,0.,0.));
#387=DIRECTION('',(0.,0.,-1.));
#388=DIRECTION('center_axis',(0.,0.,1.));
#389=DIRECTION('ref_axis',(-1.,0.,0.));
#390=DIRECTION('center_axis',(0.,0.,-1.));
#391=DIRECTION('ref_axis',(-1.,0.,0.));
#392=DIRECTION('center_axis',(0.,0.,-1.));
#393=DIRECTION('ref_axis',(-1.,0.,0.));
#394=DIRECTION('',(0.,0.,-1.));
#395=DIRECTION('center_axis',(0.,0.,1.));
#396=DIRECTION('ref_axis',(-1.,0.,0.));
#397=DIRECTION('center_axis',(0.,0.,-1.));
#398=DIRECTION('ref_axis',(-1.,0.,0.));
#399=DIRECTION('center_axis',(0.,0.,-1.));
#400=DIRECTION('ref_axis',(-1.,0.,0.));
#401=DIRECTION('',(0.,0.,-1.));
#402=DIRECTION('center_axis',(0.,0.,1.));
#403=DIRECTION('ref_axis',(-1.,0.,0.));
#404=DIRECTION('center_axis',(0.,0.,-1.));
#405=DIRECTION('ref_axis',(-1.,0.,0.));
#406=DIRECTION('center_axis',(0.,0.,-1.));
#407=DIRECTION('ref_axis',(-1.,0.,0.));
#408=DIRECTION('',(0.,0.,-1.));
#409=DIRECTION('center_axis',(0.,0.,1.));
#410=DIRECTION('ref_axis',(-1.,0.,0.));
#411=DIRECTION('center_axis',(0.,0.,1.));
#412=DIRECTION('ref_axis',(1.,0.,0.));
#413=DIRECTION('',(1.,0.,0.));
#414=DIRECTION('',(0.,1.,0.));
#415=DIRECTION('',(1.,0.,0.));
#416=DIRECTION('',(0.,1.,0.));
#417=DIRECTION('center_axis',(-1.,0.,0.));
#418=DIRECTION('ref_axis',(0.,0.,1.));
#419=DIRECTION('',(0.,0.,1.));
#420=DIRECTION('',(0.,0.,1.));
#421=DIRECTION('',(0.,1.,0.));
#422=DIRECTION('center_axis',(0.,0.,1.));
#423=DIRECTION('ref_axis',(1.,0.,0.));
#424=DIRECTION('',(1.,0.,0.));
#425=DIRECTION('',(1.,0.,0.));
#426=DIRECTION('',(0.,1.,0.));
#427=DIRECTION('center_axis',(1.,0.,0.));
#428=DIRECTION('ref_axis',(0.,0.,-1.));
#429=DIRECTION('',(0.,0.,-1.));
#430=DIRECTION('',(0.,0.,-1.));
#431=DIRECTION('',(0.,1.,0.));
#432=DIRECTION('center_axis',(0.,0.,1.));
#433=DIRECTION('ref_axis',(1.,0.,0.));
#434=DIRECTION('',(1.,0.,0.));
#435=DIRECTION('',(1.,0.,0.));
#436=DIRECTION('',(0.,1.,0.));
#437=DIRECTION('center_axis',(-1.,0.,0.));
#438=DIRECTION('ref_axis',(0.,0.,1.));
#439=DIRECTION('',(0.,0.,1.));
#440=DIRECTION('',(0.,0.,1.));
#441=DIRECTION('',(0.,1.,0.));
#442=DIRECTION('center_axis',(0.,0.,-1.));
#443=DIRECTION('ref_axis',(-1.,0.,0.));
#444=DIRECTION('',(-1.,0.,0.));
#445=DIRECTION('',(-1.,0.,0.));
#446=DIRECTION('',(0.,1.,0.));
#447=DIRECTION('center_axis',(1.,0.,0.));
#448=DIRECTION('ref_axis',(0.,0.,-1.));
#449=DIRECTION('',(0.,0.,-1.));
#450=DIRECTION('',(0.,0.,-1.));
#451=DIRECTION('center_axis',(0.,1.,0.));
#452=DIRECTION('ref_axis',(0.,0.,1.));
#453=DIRECTION('center_axis',(0.,1.,0.));
#454=DIRECTION('ref_axis',(0.,0.,1.));
#455=DIRECTION('',(0.,0.,1.));
#456=DIRECTION('',(1.,0.,0.));
#457=CARTESIAN_POINT('',(0.,0.,0.));
#458=CARTESIAN_POINT('',(0.,0.,0.));
#459=CARTESIAN_POINT('Origin',(0.,4480.,2.));
#460=CARTESIAN_POINT('',(2.6,4480.,2.));
#461=CARTESIAN_POINT('Origin',(0.,4480.,2.));
#462=CARTESIAN_POINT('',(2.6,4480.,0.));
#463=CARTESIAN_POINT('',(2.6,4480.,2.));
#464=CARTESIAN_POINT('Origin',(0.,4480.,0.));
#465=CARTESIAN_POINT('Origin',(0.,1520.,2.));
#466=CARTESIAN_POINT('',(2.6,1520.,2.));
#467=CARTESIAN_POINT('Origin',(0.,1520.,2.));
#468=CARTESIAN_POINT('',(2.6,1520.,0.));
#469=CARTESIAN_POINT('',(2.6,1520.,2.));
#470=CARTESIAN_POINT('Origin',(0.,1520.,0.));
#471=CARTESIAN_POINT('Origin',(0.,40.,2.));
#472=CARTESIAN_POINT('',(2.6,40.,2.));
#473=CARTESIAN_POINT('Origin',(0.,40.,2.));
#474=CARTESIAN_POINT('',(2.6,40.,0.));
#475=CARTESIAN_POINT('',(2.6,40.,2.));
#476=CARTESIAN_POINT('Origin',(0.,40.,0.));
#477=CARTESIAN_POINT('Origin',(0.,3000.,2.));
#478=CARTESIAN_POINT('',(2.6,3000.,2.));
#479=CARTESIAN_POINT('Origin',(0.,3000.,2.));
#480=CARTESIAN_POINT('',(2.6,3000.,0.));
#481=CARTESIAN_POINT('',(2.6,3000.,2.));
#482=CARTESIAN_POINT('Origin',(0.,3000.,0.));
#483=CARTESIAN_POINT('Origin',(0.,5960.,2.));
#484=CARTESIAN_POINT('',(2.6,5960.,2.));
#485=CARTESIAN_POINT('Origin',(0.,5960.,2.));
#486=CARTESIAN_POINT('',(2.6,5960.,0.));
#487=CARTESIAN_POINT('',(2.6,5960.,2.));
#488=CARTESIAN_POINT('Origin',(0.,5960.,0.));
#489=CARTESIAN_POINT('Origin',(8.,0.,20.));
#490=CARTESIAN_POINT('',(8.,0.,20.));
#491=CARTESIAN_POINT('',(10.,0.,20.));
#492=CARTESIAN_POINT('',(8.,0.,20.));
#493=CARTESIAN_POINT('',(10.,6000.,20.));
#494=CARTESIAN_POINT('',(10.,0.,20.));
#495=CARTESIAN_POINT('',(8.,6000.,20.));
#496=CARTESIAN_POINT('',(8.,6000.,20.));
#497=CARTESIAN_POINT('',(8.,0.,20.));
#498=CARTESIAN_POINT('Origin',(8.,0.,2.));
#499=CARTESIAN_POINT('',(8.,0.,2.));
#500=CARTESIAN_POINT('',(8.,0.,2.));
#501=CARTESIAN_POINT('',(8.,6000.,2.));
#502=CARTESIAN_POINT('',(8.,6000.,2.));
#503=CARTESIAN_POINT('',(8.,0.,2.));
#504=CARTESIAN_POINT('Origin',(-8.,0.,2.));
#505=CARTESIAN_POINT('',(-8.,0.,2.));
#506=CARTESIAN_POINT('',(-8.,0.,2.));
#507=CARTESIAN_POINT('',(-8.,6000.,2.));
#508=CARTESIAN_POINT('',(-8.,6000.,2.));
#509=CARTESIAN_POINT('',(-8.,0.,2.));
#510=CARTESIAN_POINT('Origin',(-8.,0.,20.));
#511=CARTESIAN_POINT('',(-8.,0.,20.));
#512=CARTESIAN_POINT('',(-8.,0.,20.));
#513=CARTESIAN_POINT('',(-8.,6000.,20.));
#514=CARTESIAN_POINT('',(-8.,6000.,20.));
#515=CARTESIAN_POINT('',(-8.,0.,20.));
#516=CARTESIAN_POINT('Origin',(-10.,0.,20.));
#517=CARTESIAN_POINT('',(-10.,0.,20.));
#518=CARTESIAN_POINT('',(-10.,0.,20.));
#519=CARTESIAN_POINT('',(-10.,6000.,20.));
#520=CARTESIAN_POINT('',(-10.,6000.,20.));
#521=CARTESIAN_POINT('',(-10.,0.,20.));
#522=CARTESIAN_POINT('Origin',(-10.,0.,0.));
#523=CARTESIAN_POINT('',(-10.,0.,0.));
#524=CARTESIAN_POINT('',(-10.,0.,0.));
#525=CARTESIAN_POINT('',(-10.,6000.,0.));
#526=CARTESIAN_POINT('',(-10.,6000.,0.));
#527=CARTESIAN_POINT('',(-10.,0.,0.));
#528=CARTESIAN_POINT('Origin',(10.,0.,0.));
#529=CARTESIAN_POINT('',(10.,0.,0.));
#530=CARTESIAN_POINT('',(10.,0.,0.));
#531=CARTESIAN_POINT('',(10.,6000.,0.));
#532=CARTESIAN_POINT('',(10.,6000.,0.));
#533=CARTESIAN_POINT('',(10.,0.,0.));
#534=CARTESIAN_POINT('Origin',(10.,0.,20.));
#535=CARTESIAN_POINT('',(10.,0.,20.));
#536=CARTESIAN_POINT('',(10.,6000.,20.));
#537=CARTESIAN_POINT('Origin',(-1.79454152687256E-17,6000.,7.82758620689655));
#538=CARTESIAN_POINT('Origin',(-1.79454152687256E-17,0.,7.82758620689655));
#539=CARTESIAN_POINT('',(0.,0.,0.));
#540=UNCERTAINTY_MEASURE_WITH_UNIT(LENGTH_MEASURE(0.01),#546,
'DISTANCE_ACCURACY_VALUE',
'Maximum model space distance between geometric entities at asserted c
onnectivities');
#541=UNCERTAINTY_MEASURE_WITH_UNIT(LENGTH_MEASURE(0.01),#546,
'DISTANCE_ACCURACY_VALUE',
'Maximum model space distance between geometric entities at asserted c
onnectivities');
#542=UNCERTAINTY_MEASURE_WITH_UNIT(LENGTH_MEASURE(0.01),#546,
'DISTANCE_ACCURACY_VALUE',
'Maximum model space distance between geometric entities at asserted c
onnectivities');
#543=(
GEOMETRIC_REPRESENTATION_CONTEXT(3)
GLOBAL_UNCERTAINTY_ASSIGNED_CONTEXT((#540))
GLOBAL_UNIT_ASSIGNED_CONTEXT((#546,#548,#549))
REPRESENTATION_CONTEXT('','3D')
);
#544=(
GEOMETRIC_REPRESENTATION_CONTEXT(3)
GLOBAL_UNCERTAINTY_ASSIGNED_CONTEXT((#541))
GLOBAL_UNIT_ASSIGNED_CONTEXT((#546,#548,#549))
REPRESENTATION_CONTEXT('','3D')
);
#545=(
GEOMETRIC_REPRESENTATION_CONTEXT(3)
GLOBAL_UNCERTAINTY_ASSIGNED_CONTEXT((#542))
GLOBAL_UNIT_ASSIGNED_CONTEXT((#546,#548,#549))
REPRESENTATION_CONTEXT('','3D')
);
#546=(
LENGTH_UNIT()
NAMED_UNIT(*)
SI_UNIT(.MILLI.,.METRE.)
);
#547=(
LENGTH_UNIT()
NAMED_UNIT(*)
SI_UNIT(.CENTI.,.METRE.)
);
#548=(
NAMED_UNIT(*)
PLANE_ANGLE_UNIT()
SI_UNIT($,.RADIAN.)
);
#549=(
NAMED_UNIT(*)
SI_UNIT($,.STERADIAN.)
SOLID_ANGLE_UNIT()
);
#550=SHAPE_DEFINITION_REPRESENTATION(#552,#555);
#551=SHAPE_DEFINITION_REPRESENTATION(#553,#556);
#552=PRODUCT_DEFINITION_SHAPE('',$,#558);
#553=PRODUCT_DEFINITION_SHAPE('',$,#559);
#554=PRODUCT_DEFINITION_SHAPE($,$,#14);
#555=SHAPE_REPRESENTATION('',(#344,#371),#543);
#556=SHAPE_REPRESENTATION('',(#345),#544);
#557=PRODUCT_DEFINITION_CONTEXT('part definition',#565,'design');
#558=PRODUCT_DEFINITION('23365','23365',#560,#557);
#559=PRODUCT_DEFINITION('23364','23364',#561,#557);
#560=PRODUCT_DEFINITION_FORMATION('',$,#567);
#561=PRODUCT_DEFINITION_FORMATION('',$,#568);
#562=PRODUCT_RELATED_PRODUCT_CATEGORY('23365','23365',(#567));
#563=PRODUCT_RELATED_PRODUCT_CATEGORY('23364','23364',(#568));
#564=APPLICATION_PROTOCOL_DEFINITION('international standard',
'automotive_design',2009,#565);
#565=APPLICATION_CONTEXT(
'Core Data for Automotive Mechanical Design Process');
#566=PRODUCT_CONTEXT('part definition',#565,'mechanical');
#567=PRODUCT('23365','23365',$,(#566));
#568=PRODUCT('23364','23364',$,(#566));
ENDSEC;
END-ISO-10303-21;
