ISO-10303-21;
HEADER;
/* Generated by software containing ST-Developer
 * from STEP Tools, Inc. (www.steptools.com) 
 */

FILE_DESCRIPTION(
/* description */ (''),
/* implementation_level */ '2;1');

FILE_NAME(
/* name */ 'R:\\BE\\Transfert-temporaire\\9013XA2.stp',
/* time_stamp */ '2019-08-23T08:42:52+02:00',
/* author */ ('MARC'),
/* organization */ (''),
/* preprocessor_version */ 'ST-DEVELOPER v17.2',
/* originating_system */ 'Autodesk Inventor 2019',
/* authorisation */ '');

FILE_SCHEMA (('AUTOMOTIVE_DESIGN { 1 0 10303 214 3 1 1 }'));
ENDSEC;

DATA;
#10=MECHANICAL_DESIGN_GEOMETRIC_PRESENTATION_REPRESENTATION('',(#13),#680);
#11=SHAPE_REPRESENTATION_RELATIONSHIP('SRR','None',#687,#12);
#12=ADVANCED_BREP_SHAPE_REPRESENTATION('',(#14),#679);
#13=STYLED_ITEM('',(#696),#14);
#14=MANIFOLD_SOLID_BREP('Solide1',#384);
#15=FACE_BOUND('',#79,.T.);
#16=FACE_BOUND('',#85,.T.);
#17=FACE_BOUND('',#86,.T.);
#18=FACE_BOUND('',#89,.T.);
#19=FACE_BOUND('',#91,.T.);
#20=FACE_BOUND('',#92,.T.);
#21=B_SPLINE_CURVE_WITH_KNOTS('',3,(#584,#585,#586,#587,#588,#589,#590,
#591,#592,#593),.UNSPECIFIED.,.F.,.F.,(4,2,2,2,4),(0.935828862293045,1.04890321270985,
1.16197756312665,1.27721889213762,1.39246022114859),.UNSPECIFIED.);
#22=B_SPLINE_CURVE_WITH_KNOTS('',3,(#602,#603,#604,#605,#606,#607,#608,
#609,#610,#611),.UNSPECIFIED.,.F.,.F.,(4,2,2,2,4),(0.479197503437496,0.594438832448467,
0.709680161459439,0.822754511876242,0.935828862293045),.UNSPECIFIED.);
#23=CIRCLE('',#406,5.25);
#24=CIRCLE('',#407,5.25);
#25=CIRCLE('',#410,5.25);
#26=CIRCLE('',#411,5.25);
#27=CIRCLE('',#413,10.);
#28=CIRCLE('',#414,10.);
#29=CIRCLE('',#416,10.);
#30=CIRCLE('',#417,10.);
#31=CIRCLE('',#421,4.);
#32=CIRCLE('',#422,3.);
#33=CIRCLE('',#425,3.25);
#34=CIRCLE('',#426,3.25);
#35=CIRCLE('',#427,3.25);
#36=CIRCLE('',#429,3.25);
#37=CIRCLE('',#430,3.25);
#38=CIRCLE('',#431,3.25);
#39=CIRCLE('',#434,3.);
#40=CIRCLE('',#437,4.);
#41=CYLINDRICAL_SURFACE('',#405,5.25);
#42=CYLINDRICAL_SURFACE('',#409,5.25);
#43=CYLINDRICAL_SURFACE('',#412,10.);
#44=CYLINDRICAL_SURFACE('',#415,10.);
#45=CYLINDRICAL_SURFACE('',#419,2.99999999999999);
#46=CYLINDRICAL_SURFACE('',#424,3.25);
#47=CYLINDRICAL_SURFACE('',#428,3.25);
#48=CYLINDRICAL_SURFACE('',#433,3.);
#49=CYLINDRICAL_SURFACE('',#436,4.);
#50=FACE_OUTER_BOUND('',#69,.T.);
#51=FACE_OUTER_BOUND('',#70,.T.);
#52=FACE_OUTER_BOUND('',#71,.T.);
#53=FACE_OUTER_BOUND('',#72,.T.);
#54=FACE_OUTER_BOUND('',#73,.T.);
#55=FACE_OUTER_BOUND('',#74,.T.);
#56=FACE_OUTER_BOUND('',#75,.T.);
#57=FACE_OUTER_BOUND('',#76,.T.);
#58=FACE_OUTER_BOUND('',#77,.T.);
#59=FACE_OUTER_BOUND('',#78,.T.);
#60=FACE_OUTER_BOUND('',#80,.T.);
#61=FACE_OUTER_BOUND('',#81,.T.);
#62=FACE_OUTER_BOUND('',#82,.T.);
#63=FACE_OUTER_BOUND('',#83,.T.);
#64=FACE_OUTER_BOUND('',#84,.T.);
#65=FACE_OUTER_BOUND('',#87,.T.);
#66=FACE_OUTER_BOUND('',#88,.T.);
#67=FACE_OUTER_BOUND('',#90,.T.);
#68=FACE_OUTER_BOUND('',#93,.T.);
#69=EDGE_LOOP('',(#249,#250,#251,#252));
#70=EDGE_LOOP('',(#253,#254,#255,#256));
#71=EDGE_LOOP('',(#257,#258,#259,#260));
#72=EDGE_LOOP('',(#261,#262,#263,#264));
#73=EDGE_LOOP('',(#265,#266,#267,#268,#269));
#74=EDGE_LOOP('',(#270,#271,#272,#273,#274));
#75=EDGE_LOOP('',(#275,#276,#277,#278));
#76=EDGE_LOOP('',(#279,#280,#281,#282));
#77=EDGE_LOOP('',(#283,#284,#285,#286,#287,#288,#289,#290));
#78=EDGE_LOOP('',(#291,#292,#293,#294,#295,#296));
#79=EDGE_LOOP('',(#297,#298,#299,#300));
#80=EDGE_LOOP('',(#301,#302,#303,#304,#305));
#81=EDGE_LOOP('',(#306,#307,#308,#309,#310));
#82=EDGE_LOOP('',(#311,#312,#313,#314));
#83=EDGE_LOOP('',(#315,#316,#317,#318));
#84=EDGE_LOOP('',(#319,#320,#321,#322));
#85=EDGE_LOOP('',(#323,#324));
#86=EDGE_LOOP('',(#325,#326));
#87=EDGE_LOOP('',(#327,#328,#329,#330));
#88=EDGE_LOOP('',(#331,#332,#333,#334,#335,#336));
#89=EDGE_LOOP('',(#337,#338,#339,#340));
#90=EDGE_LOOP('',(#341,#342,#343,#344));
#91=EDGE_LOOP('',(#345));
#92=EDGE_LOOP('',(#346));
#93=EDGE_LOOP('',(#347,#348,#349,#350,#351,#352,#353,#354));
#94=LINE('',#554,#127);
#95=LINE('',#556,#128);
#96=LINE('',#558,#129);
#97=LINE('',#559,#130);
#98=LINE('',#565,#131);
#99=LINE('',#568,#132);
#100=LINE('',#570,#133);
#101=LINE('',#571,#134);
#102=LINE('',#580,#135);
#103=LINE('',#594,#136);
#104=LINE('',#600,#137);
#105=LINE('',#614,#138);
#106=LINE('',#616,#139);
#107=LINE('',#617,#140);
#108=LINE('',#619,#141);
#109=LINE('',#622,#142);
#110=LINE('',#626,#143);
#111=LINE('',#630,#144);
#112=LINE('',#632,#145);
#113=LINE('',#633,#146);
#114=LINE('',#636,#147);
#115=LINE('',#637,#148);
#116=LINE('',#644,#149);
#117=LINE('',#652,#150);
#118=LINE('',#656,#151);
#119=LINE('',#658,#152);
#120=LINE('',#659,#153);
#121=LINE('',#662,#154);
#122=LINE('',#666,#155);
#123=LINE('',#667,#156);
#124=LINE('',#672,#157);
#125=LINE('',#673,#158);
#126=LINE('',#675,#159);
#127=VECTOR('',#445,10.);
#128=VECTOR('',#446,10.);
#129=VECTOR('',#447,10.);
#130=VECTOR('',#448,10.);
#131=VECTOR('',#455,10.);
#132=VECTOR('',#458,10.);
#133=VECTOR('',#459,10.);
#134=VECTOR('',#460,10.);
#135=VECTOR('',#471,10.);
#136=VECTOR('',#474,10.);
#137=VECTOR('',#479,10.);
#138=VECTOR('',#482,10.);
#139=VECTOR('',#485,10.);
#140=VECTOR('',#486,10.);
#141=VECTOR('',#489,10.);
#142=VECTOR('',#492,10.);
#143=VECTOR('',#495,10.);
#144=VECTOR('',#498,10.);
#145=VECTOR('',#499,10.);
#146=VECTOR('',#500,10.);
#147=VECTOR('',#503,10.);
#148=VECTOR('',#504,10.);
#149=VECTOR('',#511,3.25);
#150=VECTOR('',#520,3.25);
#151=VECTOR('',#525,10.);
#152=VECTOR('',#526,10.);
#153=VECTOR('',#527,10.);
#154=VECTOR('',#530,10.);
#155=VECTOR('',#535,10.);
#156=VECTOR('',#536,10.);
#157=VECTOR('',#543,10.);
#158=VECTOR('',#544,10.);
#159=VECTOR('',#547,10.);
#160=VERTEX_POINT('',#552);
#161=VERTEX_POINT('',#553);
#162=VERTEX_POINT('',#555);
#163=VERTEX_POINT('',#557);
#164=VERTEX_POINT('',#561);
#165=VERTEX_POINT('',#563);
#166=VERTEX_POINT('',#567);
#167=VERTEX_POINT('',#569);
#168=VERTEX_POINT('',#576);
#169=VERTEX_POINT('',#577);
#170=VERTEX_POINT('',#579);
#171=VERTEX_POINT('',#581);
#172=VERTEX_POINT('',#583);
#173=VERTEX_POINT('',#596);
#174=VERTEX_POINT('',#597);
#175=VERTEX_POINT('',#599);
#176=VERTEX_POINT('',#601);
#177=VERTEX_POINT('',#612);
#178=VERTEX_POINT('',#621);
#179=VERTEX_POINT('',#623);
#180=VERTEX_POINT('',#625);
#181=VERTEX_POINT('',#627);
#182=VERTEX_POINT('',#629);
#183=VERTEX_POINT('',#631);
#184=VERTEX_POINT('',#635);
#185=VERTEX_POINT('',#639);
#186=VERTEX_POINT('',#640);
#187=VERTEX_POINT('',#643);
#188=VERTEX_POINT('',#647);
#189=VERTEX_POINT('',#648);
#190=VERTEX_POINT('',#651);
#191=VERTEX_POINT('',#655);
#192=VERTEX_POINT('',#657);
#193=VERTEX_POINT('',#661);
#194=VERTEX_POINT('',#665);
#195=VERTEX_POINT('',#671);
#196=EDGE_CURVE('',#160,#161,#94,.T.);
#197=EDGE_CURVE('',#162,#160,#95,.T.);
#198=EDGE_CURVE('',#163,#162,#96,.T.);
#199=EDGE_CURVE('',#163,#161,#97,.T.);
#200=EDGE_CURVE('',#161,#164,#23,.T.);
#201=EDGE_CURVE('',#165,#163,#24,.T.);
#202=EDGE_CURVE('',#165,#164,#98,.T.);
#203=EDGE_CURVE('',#164,#166,#99,.T.);
#204=EDGE_CURVE('',#167,#165,#100,.T.);
#205=EDGE_CURVE('',#167,#166,#101,.T.);
#206=EDGE_CURVE('',#166,#160,#25,.T.);
#207=EDGE_CURVE('',#162,#167,#26,.T.);
#208=EDGE_CURVE('',#168,#169,#27,.T.);
#209=EDGE_CURVE('',#170,#168,#102,.T.);
#210=EDGE_CURVE('',#171,#170,#28,.T.);
#211=EDGE_CURVE('',#172,#171,#21,.T.);
#212=EDGE_CURVE('',#169,#172,#103,.T.);
#213=EDGE_CURVE('',#173,#174,#29,.T.);
#214=EDGE_CURVE('',#175,#173,#104,.T.);
#215=EDGE_CURVE('',#176,#175,#22,.T.);
#216=EDGE_CURVE('',#177,#176,#30,.T.);
#217=EDGE_CURVE('',#174,#177,#105,.T.);
#218=EDGE_CURVE('',#172,#175,#106,.T.);
#219=EDGE_CURVE('',#169,#173,#107,.T.);
#220=EDGE_CURVE('',#171,#176,#108,.T.);
#221=EDGE_CURVE('',#178,#177,#109,.T.);
#222=EDGE_CURVE('',#179,#178,#31,.T.);
#223=EDGE_CURVE('',#180,#179,#110,.T.);
#224=EDGE_CURVE('',#181,#180,#32,.T.);
#225=EDGE_CURVE('',#182,#181,#111,.T.);
#226=EDGE_CURVE('',#183,#182,#112,.T.);
#227=EDGE_CURVE('',#174,#183,#113,.T.);
#228=EDGE_CURVE('',#184,#170,#114,.T.);
#229=EDGE_CURVE('',#184,#178,#115,.T.);
#230=EDGE_CURVE('',#185,#186,#33,.T.);
#231=EDGE_CURVE('',#186,#185,#34,.T.);
#232=EDGE_CURVE('',#186,#187,#116,.T.);
#233=EDGE_CURVE('',#187,#187,#35,.T.);
#234=EDGE_CURVE('',#188,#189,#36,.T.);
#235=EDGE_CURVE('',#189,#188,#37,.T.);
#236=EDGE_CURVE('',#189,#190,#117,.T.);
#237=EDGE_CURVE('',#190,#190,#38,.T.);
#238=EDGE_CURVE('',#191,#181,#118,.T.);
#239=EDGE_CURVE('',#192,#191,#119,.T.);
#240=EDGE_CURVE('',#192,#182,#120,.T.);
#241=EDGE_CURVE('',#193,#180,#121,.T.);
#242=EDGE_CURVE('',#191,#193,#39,.T.);
#243=EDGE_CURVE('',#194,#179,#122,.T.);
#244=EDGE_CURVE('',#193,#194,#123,.T.);
#245=EDGE_CURVE('',#194,#184,#40,.T.);
#246=EDGE_CURVE('',#195,#183,#124,.T.);
#247=EDGE_CURVE('',#168,#195,#125,.T.);
#248=EDGE_CURVE('',#195,#192,#126,.T.);
#249=ORIENTED_EDGE('',*,*,#196,.F.);
#250=ORIENTED_EDGE('',*,*,#197,.F.);
#251=ORIENTED_EDGE('',*,*,#198,.F.);
#252=ORIENTED_EDGE('',*,*,#199,.T.);
#253=ORIENTED_EDGE('',*,*,#200,.F.);
#254=ORIENTED_EDGE('',*,*,#199,.F.);
#255=ORIENTED_EDGE('',*,*,#201,.F.);
#256=ORIENTED_EDGE('',*,*,#202,.T.);
#257=ORIENTED_EDGE('',*,*,#203,.F.);
#258=ORIENTED_EDGE('',*,*,#202,.F.);
#259=ORIENTED_EDGE('',*,*,#204,.F.);
#260=ORIENTED_EDGE('',*,*,#205,.T.);
#261=ORIENTED_EDGE('',*,*,#206,.F.);
#262=ORIENTED_EDGE('',*,*,#205,.F.);
#263=ORIENTED_EDGE('',*,*,#207,.F.);
#264=ORIENTED_EDGE('',*,*,#197,.T.);
#265=ORIENTED_EDGE('',*,*,#208,.F.);
#266=ORIENTED_EDGE('',*,*,#209,.F.);
#267=ORIENTED_EDGE('',*,*,#210,.F.);
#268=ORIENTED_EDGE('',*,*,#211,.F.);
#269=ORIENTED_EDGE('',*,*,#212,.F.);
#270=ORIENTED_EDGE('',*,*,#213,.F.);
#271=ORIENTED_EDGE('',*,*,#214,.F.);
#272=ORIENTED_EDGE('',*,*,#215,.F.);
#273=ORIENTED_EDGE('',*,*,#216,.F.);
#274=ORIENTED_EDGE('',*,*,#217,.F.);
#275=ORIENTED_EDGE('',*,*,#212,.T.);
#276=ORIENTED_EDGE('',*,*,#218,.T.);
#277=ORIENTED_EDGE('',*,*,#214,.T.);
#278=ORIENTED_EDGE('',*,*,#219,.F.);
#279=ORIENTED_EDGE('',*,*,#211,.T.);
#280=ORIENTED_EDGE('',*,*,#220,.T.);
#281=ORIENTED_EDGE('',*,*,#215,.T.);
#282=ORIENTED_EDGE('',*,*,#218,.F.);
#283=ORIENTED_EDGE('',*,*,#217,.T.);
#284=ORIENTED_EDGE('',*,*,#221,.F.);
#285=ORIENTED_EDGE('',*,*,#222,.F.);
#286=ORIENTED_EDGE('',*,*,#223,.F.);
#287=ORIENTED_EDGE('',*,*,#224,.F.);
#288=ORIENTED_EDGE('',*,*,#225,.F.);
#289=ORIENTED_EDGE('',*,*,#226,.F.);
#290=ORIENTED_EDGE('',*,*,#227,.F.);
#291=ORIENTED_EDGE('',*,*,#210,.T.);
#292=ORIENTED_EDGE('',*,*,#228,.F.);
#293=ORIENTED_EDGE('',*,*,#229,.T.);
#294=ORIENTED_EDGE('',*,*,#221,.T.);
#295=ORIENTED_EDGE('',*,*,#216,.T.);
#296=ORIENTED_EDGE('',*,*,#220,.F.);
#297=ORIENTED_EDGE('',*,*,#204,.T.);
#298=ORIENTED_EDGE('',*,*,#201,.T.);
#299=ORIENTED_EDGE('',*,*,#198,.T.);
#300=ORIENTED_EDGE('',*,*,#207,.T.);
#301=ORIENTED_EDGE('',*,*,#230,.F.);
#302=ORIENTED_EDGE('',*,*,#231,.F.);
#303=ORIENTED_EDGE('',*,*,#232,.T.);
#304=ORIENTED_EDGE('',*,*,#233,.F.);
#305=ORIENTED_EDGE('',*,*,#232,.F.);
#306=ORIENTED_EDGE('',*,*,#234,.F.);
#307=ORIENTED_EDGE('',*,*,#235,.F.);
#308=ORIENTED_EDGE('',*,*,#236,.T.);
#309=ORIENTED_EDGE('',*,*,#237,.F.);
#310=ORIENTED_EDGE('',*,*,#236,.F.);
#311=ORIENTED_EDGE('',*,*,#225,.T.);
#312=ORIENTED_EDGE('',*,*,#238,.F.);
#313=ORIENTED_EDGE('',*,*,#239,.F.);
#314=ORIENTED_EDGE('',*,*,#240,.T.);
#315=ORIENTED_EDGE('',*,*,#224,.T.);
#316=ORIENTED_EDGE('',*,*,#241,.F.);
#317=ORIENTED_EDGE('',*,*,#242,.F.);
#318=ORIENTED_EDGE('',*,*,#238,.T.);
#319=ORIENTED_EDGE('',*,*,#223,.T.);
#320=ORIENTED_EDGE('',*,*,#243,.F.);
#321=ORIENTED_EDGE('',*,*,#244,.F.);
#322=ORIENTED_EDGE('',*,*,#241,.T.);
#323=ORIENTED_EDGE('',*,*,#230,.T.);
#324=ORIENTED_EDGE('',*,*,#231,.T.);
#325=ORIENTED_EDGE('',*,*,#234,.T.);
#326=ORIENTED_EDGE('',*,*,#235,.T.);
#327=ORIENTED_EDGE('',*,*,#222,.T.);
#328=ORIENTED_EDGE('',*,*,#229,.F.);
#329=ORIENTED_EDGE('',*,*,#245,.F.);
#330=ORIENTED_EDGE('',*,*,#243,.T.);
#331=ORIENTED_EDGE('',*,*,#208,.T.);
#332=ORIENTED_EDGE('',*,*,#219,.T.);
#333=ORIENTED_EDGE('',*,*,#213,.T.);
#334=ORIENTED_EDGE('',*,*,#227,.T.);
#335=ORIENTED_EDGE('',*,*,#246,.F.);
#336=ORIENTED_EDGE('',*,*,#247,.F.);
#337=ORIENTED_EDGE('',*,*,#203,.T.);
#338=ORIENTED_EDGE('',*,*,#206,.T.);
#339=ORIENTED_EDGE('',*,*,#196,.T.);
#340=ORIENTED_EDGE('',*,*,#200,.T.);
#341=ORIENTED_EDGE('',*,*,#226,.T.);
#342=ORIENTED_EDGE('',*,*,#240,.F.);
#343=ORIENTED_EDGE('',*,*,#248,.F.);
#344=ORIENTED_EDGE('',*,*,#246,.T.);
#345=ORIENTED_EDGE('',*,*,#233,.T.);
#346=ORIENTED_EDGE('',*,*,#237,.T.);
#347=ORIENTED_EDGE('',*,*,#209,.T.);
#348=ORIENTED_EDGE('',*,*,#247,.T.);
#349=ORIENTED_EDGE('',*,*,#248,.T.);
#350=ORIENTED_EDGE('',*,*,#239,.T.);
#351=ORIENTED_EDGE('',*,*,#242,.T.);
#352=ORIENTED_EDGE('',*,*,#244,.T.);
#353=ORIENTED_EDGE('',*,*,#245,.T.);
#354=ORIENTED_EDGE('',*,*,#228,.T.);
#355=PLANE('',#404);
#356=PLANE('',#408);
#357=PLANE('',#418);
#358=PLANE('',#420);
#359=PLANE('',#423);
#360=PLANE('',#432);
#361=PLANE('',#435);
#362=PLANE('',#438);
#363=PLANE('',#439);
#364=PLANE('',#440);
#365=ADVANCED_FACE('',(#50),#355,.F.);
#366=ADVANCED_FACE('',(#51),#41,.F.);
#367=ADVANCED_FACE('',(#52),#356,.F.);
#368=ADVANCED_FACE('',(#53),#42,.F.);
#369=ADVANCED_FACE('',(#54),#43,.F.);
#370=ADVANCED_FACE('',(#55),#44,.F.);
#371=ADVANCED_FACE('',(#56),#357,.T.);
#372=ADVANCED_FACE('',(#57),#45,.T.);
#373=ADVANCED_FACE('',(#58),#358,.T.);
#374=ADVANCED_FACE('',(#59,#15),#359,.T.);
#375=ADVANCED_FACE('',(#60),#46,.F.);
#376=ADVANCED_FACE('',(#61),#47,.F.);
#377=ADVANCED_FACE('',(#62),#360,.T.);
#378=ADVANCED_FACE('',(#63),#48,.T.);
#379=ADVANCED_FACE('',(#64,#16,#17),#361,.T.);
#380=ADVANCED_FACE('',(#65),#49,.F.);
#381=ADVANCED_FACE('',(#66,#18),#362,.T.);
#382=ADVANCED_FACE('',(#67,#19,#20),#363,.T.);
#383=ADVANCED_FACE('',(#68),#364,.F.);
#384=CLOSED_SHELL('',(#365,#366,#367,#368,#369,#370,#371,#372,#373,#374,
#375,#376,#377,#378,#379,#380,#381,#382,#383));
#385=DERIVED_UNIT_ELEMENT(#387,1.);
#386=DERIVED_UNIT_ELEMENT(#682,3.);
#387=(
MASS_UNIT()
NAMED_UNIT(*)
SI_UNIT($,.GRAM.)
);
#388=DERIVED_UNIT((#385,#386));
#389=MEASURE_REPRESENTATION_ITEM('density measure',
POSITIVE_RATIO_MEASURE(1.),#388);
#390=PROPERTY_DEFINITION_REPRESENTATION(#395,#392);
#391=PROPERTY_DEFINITION_REPRESENTATION(#396,#393);
#392=REPRESENTATION('material name',(#394),#679);
#393=REPRESENTATION('density',(#389),#679);
#394=DESCRIPTIVE_REPRESENTATION_ITEM('G\X\E9n\X\E9rique','G\X\E9n\X\E9
rique');
#395=PROPERTY_DEFINITION('material property','material name',#689);
#396=PROPERTY_DEFINITION('material property','density of part',#689);
#397=DATE_TIME_ROLE('creation_date');
#398=APPLIED_DATE_AND_TIME_ASSIGNMENT(#399,#397,(#689));
#399=DATE_AND_TIME(#400,#401);
#400=CALENDAR_DATE(2005,13,5);
#401=LOCAL_TIME(12,23,15.,#402);
#402=COORDINATED_UNIVERSAL_TIME_OFFSET(0,0,.BEHIND.);
#403=AXIS2_PLACEMENT_3D('placement',#550,#441,#442);
#404=AXIS2_PLACEMENT_3D('',#551,#443,#444);
#405=AXIS2_PLACEMENT_3D('',#560,#449,#450);
#406=AXIS2_PLACEMENT_3D('',#562,#451,#452);
#407=AXIS2_PLACEMENT_3D('',#564,#453,#454);
#408=AXIS2_PLACEMENT_3D('',#566,#456,#457);
#409=AXIS2_PLACEMENT_3D('',#572,#461,#462);
#410=AXIS2_PLACEMENT_3D('',#573,#463,#464);
#411=AXIS2_PLACEMENT_3D('',#574,#465,#466);
#412=AXIS2_PLACEMENT_3D('',#575,#467,#468);
#413=AXIS2_PLACEMENT_3D('',#578,#469,#470);
#414=AXIS2_PLACEMENT_3D('',#582,#472,#473);
#415=AXIS2_PLACEMENT_3D('',#595,#475,#476);
#416=AXIS2_PLACEMENT_3D('',#598,#477,#478);
#417=AXIS2_PLACEMENT_3D('',#613,#480,#481);
#418=AXIS2_PLACEMENT_3D('',#615,#483,#484);
#419=AXIS2_PLACEMENT_3D('',#618,#487,#488);
#420=AXIS2_PLACEMENT_3D('',#620,#490,#491);
#421=AXIS2_PLACEMENT_3D('',#624,#493,#494);
#422=AXIS2_PLACEMENT_3D('',#628,#496,#497);
#423=AXIS2_PLACEMENT_3D('',#634,#501,#502);
#424=AXIS2_PLACEMENT_3D('',#638,#505,#506);
#425=AXIS2_PLACEMENT_3D('',#641,#507,#508);
#426=AXIS2_PLACEMENT_3D('',#642,#509,#510);
#427=AXIS2_PLACEMENT_3D('',#645,#512,#513);
#428=AXIS2_PLACEMENT_3D('',#646,#514,#515);
#429=AXIS2_PLACEMENT_3D('',#649,#516,#517);
#430=AXIS2_PLACEMENT_3D('',#650,#518,#519);
#431=AXIS2_PLACEMENT_3D('',#653,#521,#522);
#432=AXIS2_PLACEMENT_3D('',#654,#523,#524);
#433=AXIS2_PLACEMENT_3D('',#660,#528,#529);
#434=AXIS2_PLACEMENT_3D('',#663,#531,#532);
#435=AXIS2_PLACEMENT_3D('',#664,#533,#534);
#436=AXIS2_PLACEMENT_3D('',#668,#537,#538);
#437=AXIS2_PLACEMENT_3D('',#669,#539,#540);
#438=AXIS2_PLACEMENT_3D('',#670,#541,#542);
#439=AXIS2_PLACEMENT_3D('',#674,#545,#546);
#440=AXIS2_PLACEMENT_3D('',#676,#548,#549);
#441=DIRECTION('axis',(0.,0.,1.));
#442=DIRECTION('refdir',(1.,0.,0.));
#443=DIRECTION('center_axis',(0.,0.,1.));
#444=DIRECTION('ref_axis',(1.,0.,0.));
#445=DIRECTION('',(1.,0.,0.));
#446=DIRECTION('',(0.,-1.,0.));
#447=DIRECTION('',(-1.,1.91417762866406E-17,0.));
#448=DIRECTION('',(0.,-1.,0.));
#449=DIRECTION('center_axis',(0.,-1.,0.));
#450=DIRECTION('ref_axis',(0.,0.,1.));
#451=DIRECTION('center_axis',(0.,1.,0.));
#452=DIRECTION('ref_axis',(0.,0.,1.));
#453=DIRECTION('center_axis',(-1.91417762866406E-17,-1.,0.));
#454=DIRECTION('ref_axis',(0.,0.,1.));
#455=DIRECTION('',(0.,-1.,0.));
#456=DIRECTION('center_axis',(0.,0.,-1.));
#457=DIRECTION('ref_axis',(-1.,0.,0.));
#458=DIRECTION('',(-1.,0.,0.));
#459=DIRECTION('',(1.,-1.91417762866406E-17,0.));
#460=DIRECTION('',(0.,-1.,0.));
#461=DIRECTION('center_axis',(0.,-1.,0.));
#462=DIRECTION('ref_axis',(0.,0.,-1.));
#463=DIRECTION('center_axis',(0.,1.,0.));
#464=DIRECTION('ref_axis',(0.,0.,-1.));
#465=DIRECTION('center_axis',(-1.91417762866406E-17,-1.,0.));
#466=DIRECTION('ref_axis',(0.,0.,-1.));
#467=DIRECTION('center_axis',(0.,-1.,0.));
#468=DIRECTION('ref_axis',(-1.,0.,0.));
#469=DIRECTION('center_axis',(0.,1.,0.));
#470=DIRECTION('ref_axis',(-1.,0.,0.));
#471=DIRECTION('',(0.,-1.,0.));
#472=DIRECTION('center_axis',(-1.91417762866406E-17,-1.,0.));
#473=DIRECTION('ref_axis',(-1.,0.,0.));
#474=DIRECTION('',(0.,1.,0.));
#475=DIRECTION('center_axis',(0.,-1.,0.));
#476=DIRECTION('ref_axis',(0.,0.,-1.));
#477=DIRECTION('center_axis',(0.,1.,0.));
#478=DIRECTION('ref_axis',(0.,0.,-1.));
#479=DIRECTION('',(0.,-1.,0.));
#480=DIRECTION('center_axis',(-1.91417762866406E-17,-1.,0.));
#481=DIRECTION('ref_axis',(0.,0.,-1.));
#482=DIRECTION('',(0.,1.,0.));
#483=DIRECTION('center_axis',(1.,0.,0.));
#484=DIRECTION('ref_axis',(0.,0.,-1.));
#485=DIRECTION('',(0.,0.,1.));
#486=DIRECTION('',(0.,0.,1.));
#487=DIRECTION('center_axis',(0.,0.,1.));
#488=DIRECTION('ref_axis',(-1.,-4.62592926927149E-17,0.));
#489=DIRECTION('',(0.,0.,1.));
#490=DIRECTION('center_axis',(0.,0.,1.));
#491=DIRECTION('ref_axis',(1.,0.,0.));
#492=DIRECTION('',(1.,-1.91417762866406E-17,0.));
#493=DIRECTION('center_axis',(0.,0.,1.));
#494=DIRECTION('ref_axis',(-1.,0.,0.));
#495=DIRECTION('',(7.65671051465625E-17,-1.,0.));
#496=DIRECTION('center_axis',(0.,0.,-1.));
#497=DIRECTION('ref_axis',(-1.,0.,0.));
#498=DIRECTION('',(1.,8.88178419700124E-15,0.));
#499=DIRECTION('',(0.,1.,0.));
#500=DIRECTION('',(-1.,0.,0.));
#501=DIRECTION('center_axis',(1.91417762866406E-17,1.,0.));
#502=DIRECTION('ref_axis',(0.,0.,1.));
#503=DIRECTION('',(1.,-1.91417762866406E-17,0.));
#504=DIRECTION('',(0.,0.,1.));
#505=DIRECTION('center_axis',(1.,7.65671051465625E-17,0.));
#506=DIRECTION('ref_axis',(0.,0.,-1.));
#507=DIRECTION('center_axis',(-1.,-7.65671051465625E-17,0.));
#508=DIRECTION('ref_axis',(0.,0.,-1.));
#509=DIRECTION('center_axis',(-1.,-7.65671051465625E-17,0.));
#510=DIRECTION('ref_axis',(0.,0.,-1.));
#511=DIRECTION('',(-1.,-7.65671051465625E-17,0.));
#512=DIRECTION('center_axis',(1.,0.,0.));
#513=DIRECTION('ref_axis',(0.,0.,-1.));
#514=DIRECTION('center_axis',(1.,7.65671051465625E-17,0.));
#515=DIRECTION('ref_axis',(0.,0.,-1.));
#516=DIRECTION('center_axis',(-1.,-7.65671051465625E-17,0.));
#517=DIRECTION('ref_axis',(0.,0.,-1.));
#518=DIRECTION('center_axis',(-1.,-7.65671051465625E-17,0.));
#519=DIRECTION('ref_axis',(0.,0.,-1.));
#520=DIRECTION('',(-1.,-7.65671051465625E-17,0.));
#521=DIRECTION('center_axis',(1.,0.,0.));
#522=DIRECTION('ref_axis',(0.,0.,-1.));
#523=DIRECTION('center_axis',(-8.88178419700124E-15,1.,0.));
#524=DIRECTION('ref_axis',(0.,0.,1.));
#525=DIRECTION('',(0.,0.,1.));
#526=DIRECTION('',(1.,8.88178419700124E-15,0.));
#527=DIRECTION('',(0.,0.,1.));
#528=DIRECTION('center_axis',(0.,0.,1.));
#529=DIRECTION('ref_axis',(-1.,0.,0.));
#530=DIRECTION('',(0.,0.,1.));
#531=DIRECTION('center_axis',(0.,0.,-1.));
#532=DIRECTION('ref_axis',(-1.,0.,0.));
#533=DIRECTION('center_axis',(1.,7.65671051465625E-17,0.));
#534=DIRECTION('ref_axis',(0.,0.,-1.));
#535=DIRECTION('',(0.,0.,1.));
#536=DIRECTION('',(7.65671051465625E-17,-1.,0.));
#537=DIRECTION('center_axis',(0.,0.,1.));
#538=DIRECTION('ref_axis',(-1.,0.,0.));
#539=DIRECTION('center_axis',(0.,0.,1.));
#540=DIRECTION('ref_axis',(-1.,0.,0.));
#541=DIRECTION('center_axis',(0.,-1.,0.));
#542=DIRECTION('ref_axis',(0.,0.,-1.));
#543=DIRECTION('',(0.,0.,1.));
#544=DIRECTION('',(-1.,0.,0.));
#545=DIRECTION('center_axis',(-1.,0.,0.));
#546=DIRECTION('ref_axis',(0.,0.,1.));
#547=DIRECTION('',(0.,1.,0.));
#548=DIRECTION('center_axis',(0.,0.,1.));
#549=DIRECTION('ref_axis',(1.,0.,0.));
#550=CARTESIAN_POINT('',(0.,0.,0.));
#551=CARTESIAN_POINT('Origin',(18.,4.,30.25));
#552=CARTESIAN_POINT('',(18.,0.,30.25));
#553=CARTESIAN_POINT('',(30.,0.,30.25));
#554=CARTESIAN_POINT('',(29.,0.,30.25));
#555=CARTESIAN_POINT('',(18.,4.,30.25));
#556=CARTESIAN_POINT('',(18.,4.,30.25));
#557=CARTESIAN_POINT('',(30.,4.,30.25));
#558=CARTESIAN_POINT('',(13.,4.,30.25));
#559=CARTESIAN_POINT('',(30.,4.,30.25));
#560=CARTESIAN_POINT('Origin',(30.,4.,25.));
#561=CARTESIAN_POINT('',(30.,0.,19.75));
#562=CARTESIAN_POINT('Origin',(30.,0.,25.));
#563=CARTESIAN_POINT('',(30.,4.,19.75));
#564=CARTESIAN_POINT('Origin',(30.,4.,25.));
#565=CARTESIAN_POINT('',(30.,4.,19.75));
#566=CARTESIAN_POINT('Origin',(30.,4.,19.75));
#567=CARTESIAN_POINT('',(18.,0.,19.75));
#568=CARTESIAN_POINT('',(35.,0.,19.75));
#569=CARTESIAN_POINT('',(18.,4.,19.75));
#570=CARTESIAN_POINT('',(19.,4.,19.75));
#571=CARTESIAN_POINT('',(18.,4.,19.75));
#572=CARTESIAN_POINT('Origin',(18.,4.,25.));
#573=CARTESIAN_POINT('Origin',(18.,0.,25.));
#574=CARTESIAN_POINT('Origin',(18.,4.,25.));
#575=CARTESIAN_POINT('Origin',(40.,4.,0.));
#576=CARTESIAN_POINT('',(30.,0.,0.));
#577=CARTESIAN_POINT('',(40.,0.,10.));
#578=CARTESIAN_POINT('Origin',(40.,0.,0.));
#579=CARTESIAN_POINT('',(30.,4.,0.));
#580=CARTESIAN_POINT('',(30.,4.,0.));
#581=CARTESIAN_POINT('',(37.,4.,9.53939201416946));
#582=CARTESIAN_POINT('Origin',(40.,4.,0.));
#583=CARTESIAN_POINT('',(40.,1.,10.));
#584=CARTESIAN_POINT('Ctrl Pts',(40.,0.999999999999999,10.));
#585=CARTESIAN_POINT('Ctrl Pts',(40.,1.37691450138934,10.));
#586=CARTESIAN_POINT('Ctrl Pts',(39.9246145523904,1.77890804620114,10.0008894386277));
#587=CARTESIAN_POINT('Ctrl Pts',(39.618279402301,2.51811755379677,9.99388623061502));
#588=CARTESIAN_POINT('Ctrl Pts',(39.3873222152913,2.855318471828,9.98478509922558));
#589=CARTESIAN_POINT('Ctrl Pts',(38.8502207608093,3.39241992630997,9.93740783799304));
#590=CARTESIAN_POINT('Ctrl Pts',(38.5072089733982,3.62469736800586,9.89516003921807));
#591=CARTESIAN_POINT('Ctrl Pts',(37.7651495482136,3.92835465311356,9.75438674966741));
#592=CARTESIAN_POINT('Ctrl Pts',(37.3664440712232,3.99999999999999,9.65463334318043));
#593=CARTESIAN_POINT('Ctrl Pts',(37.,3.99999999999999,9.53939201416946));
#594=CARTESIAN_POINT('',(40.,4.,10.));
#595=CARTESIAN_POINT('Origin',(40.,4.,50.));
#596=CARTESIAN_POINT('',(40.,0.,40.));
#597=CARTESIAN_POINT('',(30.,0.,50.));
#598=CARTESIAN_POINT('Origin',(40.,0.,50.));
#599=CARTESIAN_POINT('',(40.,1.,40.));
#600=CARTESIAN_POINT('',(40.,4.,40.));
#601=CARTESIAN_POINT('',(37.,4.,40.4606079858305));
#602=CARTESIAN_POINT('Ctrl Pts',(37.,3.99999999999999,40.4606079858305));
#603=CARTESIAN_POINT('Ctrl Pts',(37.3664440712232,3.99999999999999,40.3453666568196));
#604=CARTESIAN_POINT('Ctrl Pts',(37.7651495482136,3.92835465311356,40.2456132503326));
#605=CARTESIAN_POINT('Ctrl Pts',(38.5072089733982,3.62469736800586,40.1048399607819));
#606=CARTESIAN_POINT('Ctrl Pts',(38.8502207608093,3.39241992630997,40.062592162007));
#607=CARTESIAN_POINT('Ctrl Pts',(39.3873222152913,2.855318471828,40.0152149007744));
#608=CARTESIAN_POINT('Ctrl Pts',(39.618279402301,2.51811755379677,40.006113769385));
#609=CARTESIAN_POINT('Ctrl Pts',(39.9246145523904,1.77890804620114,39.9991105613723));
#610=CARTESIAN_POINT('Ctrl Pts',(40.,1.37691450138934,40.));
#611=CARTESIAN_POINT('Ctrl Pts',(40.,0.999999999999999,40.));
#612=CARTESIAN_POINT('',(30.,4.,50.));
#613=CARTESIAN_POINT('Origin',(40.,4.,50.));
#614=CARTESIAN_POINT('',(30.,4.,50.));
#615=CARTESIAN_POINT('Origin',(40.,1.,0.));
#616=CARTESIAN_POINT('',(40.,1.,0.));
#617=CARTESIAN_POINT('',(40.,0.,0.));
#618=CARTESIAN_POINT('Origin',(37.,1.,0.));
#619=CARTESIAN_POINT('',(37.,4.,0.));
#620=CARTESIAN_POINT('Origin',(11.8188785374107,11.8188785374107,50.));
#621=CARTESIAN_POINT('',(8.,4.,50.));
#622=CARTESIAN_POINT('',(8.,4.,50.));
#623=CARTESIAN_POINT('',(4.,8.,50.));
#624=CARTESIAN_POINT('Origin',(8.,8.,50.));
#625=CARTESIAN_POINT('',(4.,37.,50.));
#626=CARTESIAN_POINT('',(4.,37.,50.));
#627=CARTESIAN_POINT('',(1.,40.,50.));
#628=CARTESIAN_POINT('Origin',(1.,37.,50.));
#629=CARTESIAN_POINT('',(0.,40.,50.));
#630=CARTESIAN_POINT('',(0.,40.,50.));
#631=CARTESIAN_POINT('',(0.,0.,50.));
#632=CARTESIAN_POINT('',(0.,0.,50.));
#633=CARTESIAN_POINT('',(40.,0.,50.));
#634=CARTESIAN_POINT('Origin',(8.,4.,0.));
#635=CARTESIAN_POINT('',(8.,4.,0.));
#636=CARTESIAN_POINT('',(8.,4.,0.));
#637=CARTESIAN_POINT('',(8.,4.,0.));
#638=CARTESIAN_POINT('Origin',(-71.4983443527075,18.,42.5));
#639=CARTESIAN_POINT('',(4.,18.,39.25));
#640=CARTESIAN_POINT('',(4.,18.,45.75));
#641=CARTESIAN_POINT('Origin',(4.,18.,42.5));
#642=CARTESIAN_POINT('Origin',(4.,18.,42.5));
#643=CARTESIAN_POINT('',(0.,18.,45.75));
#644=CARTESIAN_POINT('',(-71.4983443527075,18.,45.75));
#645=CARTESIAN_POINT('Origin',(0.,18.,42.5));
#646=CARTESIAN_POINT('Origin',(-71.4983443527075,25.,7.5));
#647=CARTESIAN_POINT('',(4.,25.,4.25));
#648=CARTESIAN_POINT('',(4.,25.,10.75));
#649=CARTESIAN_POINT('Origin',(4.,25.,7.5));
#650=CARTESIAN_POINT('Origin',(4.,25.,7.5));
#651=CARTESIAN_POINT('',(0.,25.,10.75));
#652=CARTESIAN_POINT('',(-71.4983443527075,25.,10.75));
#653=CARTESIAN_POINT('Origin',(0.,25.,7.5));
#654=CARTESIAN_POINT('Origin',(0.,40.,0.));
#655=CARTESIAN_POINT('',(1.,40.,0.));
#656=CARTESIAN_POINT('',(1.,40.,0.));
#657=CARTESIAN_POINT('',(0.,40.,0.));
#658=CARTESIAN_POINT('',(0.,40.,0.));
#659=CARTESIAN_POINT('',(0.,40.,0.));
#660=CARTESIAN_POINT('Origin',(1.,37.,0.));
#661=CARTESIAN_POINT('',(4.,37.,0.));
#662=CARTESIAN_POINT('',(4.,37.,0.));
#663=CARTESIAN_POINT('Origin',(1.,37.,0.));
#664=CARTESIAN_POINT('Origin',(4.,37.,0.));
#665=CARTESIAN_POINT('',(4.,8.,0.));
#666=CARTESIAN_POINT('',(4.,8.,0.));
#667=CARTESIAN_POINT('',(4.,37.,0.));
#668=CARTESIAN_POINT('Origin',(8.,8.,0.));
#669=CARTESIAN_POINT('Origin',(8.,8.,0.));
#670=CARTESIAN_POINT('Origin',(40.,0.,0.));
#671=CARTESIAN_POINT('',(0.,0.,0.));
#672=CARTESIAN_POINT('',(0.,0.,0.));
#673=CARTESIAN_POINT('',(40.,0.,0.));
#674=CARTESIAN_POINT('Origin',(0.,0.,0.));
#675=CARTESIAN_POINT('',(0.,0.,0.));
#676=CARTESIAN_POINT('Origin',(11.8188785374107,11.8188785374107,0.));
#677=UNCERTAINTY_MEASURE_WITH_UNIT(LENGTH_MEASURE(0.01),#681,
'DISTANCE_ACCURACY_VALUE',
'Maximum model space distance between geometric entities at asserted c
onnectivities');
#678=UNCERTAINTY_MEASURE_WITH_UNIT(LENGTH_MEASURE(0.01),#681,
'DISTANCE_ACCURACY_VALUE',
'Maximum model space distance between geometric entities at asserted c
onnectivities');
#679=(
GEOMETRIC_REPRESENTATION_CONTEXT(3)
GLOBAL_UNCERTAINTY_ASSIGNED_CONTEXT((#677))
GLOBAL_UNIT_ASSIGNED_CONTEXT((#681,#683,#684))
REPRESENTATION_CONTEXT('','3D')
);
#680=(
GEOMETRIC_REPRESENTATION_CONTEXT(3)
GLOBAL_UNCERTAINTY_ASSIGNED_CONTEXT((#678))
GLOBAL_UNIT_ASSIGNED_CONTEXT((#681,#683,#684))
REPRESENTATION_CONTEXT('','3D')
);
#681=(
LENGTH_UNIT()
NAMED_UNIT(*)
SI_UNIT(.MILLI.,.METRE.)
);
#682=(
LENGTH_UNIT()
NAMED_UNIT(*)
SI_UNIT(.CENTI.,.METRE.)
);
#683=(
NAMED_UNIT(*)
PLANE_ANGLE_UNIT()
SI_UNIT($,.RADIAN.)
);
#684=(
NAMED_UNIT(*)
SI_UNIT($,.STERADIAN.)
SOLID_ANGLE_UNIT()
);
#685=SHAPE_DEFINITION_REPRESENTATION(#686,#687);
#686=PRODUCT_DEFINITION_SHAPE('',$,#689);
#687=SHAPE_REPRESENTATION('',(#403),#679);
#688=PRODUCT_DEFINITION_CONTEXT('part definition',#693,'design');
#689=PRODUCT_DEFINITION('9013','9013XA2',#690,#688);
#690=PRODUCT_DEFINITION_FORMATION('',$,#695);
#691=PRODUCT_RELATED_PRODUCT_CATEGORY('9013XA2','9013XA2',(#695));
#692=APPLICATION_PROTOCOL_DEFINITION('international standard',
'automotive_design',2009,#693);
#693=APPLICATION_CONTEXT(
'Core Data for Automotive Mechanical Design Process');
#694=PRODUCT_CONTEXT('part definition',#693,'mechanical');
#695=PRODUCT('9013','9013XA2',$,(#694));
#696=PRESENTATION_STYLE_ASSIGNMENT((#697));
#697=SURFACE_STYLE_USAGE(.BOTH.,#700);
#698=SURFACE_STYLE_RENDERING_WITH_PROPERTIES($,#704,(#699));
#699=SURFACE_STYLE_TRANSPARENT(0.);
#700=SURFACE_SIDE_STYLE('',(#701,#698));
#701=SURFACE_STYLE_FILL_AREA(#702);
#702=FILL_AREA_STYLE('',(#703));
#703=FILL_AREA_STYLE_COLOUR('',#704);
#704=COLOUR_RGB('',0.752941176470588,0.752941176470588,0.752941176470588);
ENDSEC;
END-ISO-10303-21;
