ISO-10303-21;
HEADER;
/* Generated by software containing ST-Developer
 * from STEP Tools, Inc. (www.steptools.com) 
 */

FILE_DESCRIPTION(
/* description */ (''),
/* implementation_level */ '2;1');

FILE_NAME(
/* name */ 'R:\\BE\\Transfert-temporaire\\23184.stp',
/* time_stamp */ '2019-08-14T16:28:33+02:00',
/* author */ ('DBARI'),
/* organization */ (''),
/* preprocessor_version */ 'ST-DEVELOPER v17.2',
/* originating_system */ 'Autodesk Inventor 2019',
/* authorisation */ '');

FILE_SCHEMA (('AUTOMOTIVE_DESIGN { 1 0 10303 214 3 1 1 }'));
ENDSEC;

DATA;
#10=MECHANICAL_DESIGN_GEOMETRIC_PRESENTATION_REPRESENTATION('',(#13),#333);
#11=SHAPE_REPRESENTATION_RELATIONSHIP('SRR','None',#340,#12);
#12=ADVANCED_BREP_SHAPE_REPRESENTATION('',(#14),#332);
#13=STYLED_ITEM('',(#349),#14);
#14=MANIFOLD_SOLID_BREP('Solide1',#187);
#15=FACE_BOUND('',#36,.T.);
#16=FACE_BOUND('',#44,.T.);
#17=PLANE('',#210);
#18=PLANE('',#211);
#19=PLANE('',#219);
#20=PLANE('',#222);
#21=PLANE('',#223);
#22=PLANE('',#224);
#23=FACE_OUTER_BOUND('',#33,.T.);
#24=FACE_OUTER_BOUND('',#34,.T.);
#25=FACE_OUTER_BOUND('',#35,.T.);
#26=FACE_OUTER_BOUND('',#37,.T.);
#27=FACE_OUTER_BOUND('',#38,.T.);
#28=FACE_OUTER_BOUND('',#39,.T.);
#29=FACE_OUTER_BOUND('',#40,.T.);
#30=FACE_OUTER_BOUND('',#41,.T.);
#31=FACE_OUTER_BOUND('',#42,.T.);
#32=FACE_OUTER_BOUND('',#43,.T.);
#33=EDGE_LOOP('',(#125,#126,#127,#128));
#34=EDGE_LOOP('',(#129,#130,#131,#132));
#35=EDGE_LOOP('',(#133,#134,#135,#136,#137,#138));
#36=EDGE_LOOP('',(#139,#140));
#37=EDGE_LOOP('',(#141,#142,#143,#144));
#38=EDGE_LOOP('',(#145,#146,#147,#148));
#39=EDGE_LOOP('',(#149,#150,#151,#152));
#40=EDGE_LOOP('',(#153,#154,#155,#156));
#41=EDGE_LOOP('',(#157,#158,#159,#160));
#42=EDGE_LOOP('',(#161,#162,#163,#164));
#43=EDGE_LOOP('',(#165,#166,#167,#168,#169,#170));
#44=EDGE_LOOP('',(#171,#172));
#45=LINE('',#285,#61);
#46=LINE('',#288,#62);
#47=LINE('',#291,#63);
#48=LINE('',#293,#64);
#49=LINE('',#294,#65);
#50=LINE('',#297,#66);
#51=LINE('',#301,#67);
#52=LINE('',#306,#68);
#53=LINE('',#310,#69);
#54=LINE('',#313,#70);
#55=LINE('',#316,#71);
#56=LINE('',#318,#72);
#57=LINE('',#321,#73);
#58=LINE('',#324,#74);
#59=LINE('',#326,#75);
#60=LINE('',#328,#76);
#61=VECTOR('',#231,10.);
#62=VECTOR('',#234,10.);
#63=VECTOR('',#237,10.);
#64=VECTOR('',#238,10.);
#65=VECTOR('',#239,10.);
#66=VECTOR('',#242,10.);
#67=VECTOR('',#245,10.);
#68=VECTOR('',#250,10.);
#69=VECTOR('',#255,10.);
#70=VECTOR('',#258,10.);
#71=VECTOR('',#261,10.);
#72=VECTOR('',#264,10.);
#73=VECTOR('',#267,10.);
#74=VECTOR('',#270,10.);
#75=VECTOR('',#273,10.);
#76=VECTOR('',#276,10.);
#77=CIRCLE('',#208,0.15);
#78=CIRCLE('',#209,0.15);
#79=CIRCLE('',#212,3.1);
#80=CIRCLE('',#213,0.15);
#81=CIRCLE('',#214,2.5);
#82=CIRCLE('',#216,0.15);
#83=CIRCLE('',#218,2.5);
#84=CIRCLE('',#221,3.1);
#85=VERTEX_POINT('',#281);
#86=VERTEX_POINT('',#282);
#87=VERTEX_POINT('',#284);
#88=VERTEX_POINT('',#286);
#89=VERTEX_POINT('',#290);
#90=VERTEX_POINT('',#292);
#91=VERTEX_POINT('',#296);
#92=VERTEX_POINT('',#298);
#93=VERTEX_POINT('',#300);
#94=VERTEX_POINT('',#303);
#95=VERTEX_POINT('',#304);
#96=VERTEX_POINT('',#308);
#97=VERTEX_POINT('',#312);
#98=VERTEX_POINT('',#314);
#99=VERTEX_POINT('',#320);
#100=VERTEX_POINT('',#322);
#101=EDGE_CURVE('',#85,#86,#77,.T.);
#102=EDGE_CURVE('',#86,#87,#45,.T.);
#103=EDGE_CURVE('',#87,#88,#78,.T.);
#104=EDGE_CURVE('',#88,#85,#46,.T.);
#105=EDGE_CURVE('',#88,#89,#47,.T.);
#106=EDGE_CURVE('',#90,#89,#48,.T.);
#107=EDGE_CURVE('',#85,#90,#49,.T.);
#108=EDGE_CURVE('',#91,#87,#50,.T.);
#109=EDGE_CURVE('',#92,#91,#79,.T.);
#110=EDGE_CURVE('',#93,#92,#51,.T.);
#111=EDGE_CURVE('',#89,#93,#80,.T.);
#112=EDGE_CURVE('',#94,#95,#81,.T.);
#113=EDGE_CURVE('',#95,#94,#52,.T.);
#114=EDGE_CURVE('',#96,#90,#82,.T.);
#115=EDGE_CURVE('',#93,#96,#53,.T.);
#116=EDGE_CURVE('',#94,#97,#54,.T.);
#117=EDGE_CURVE('',#98,#97,#83,.T.);
#118=EDGE_CURVE('',#95,#98,#55,.T.);
#119=EDGE_CURVE('',#97,#98,#56,.T.);
#120=EDGE_CURVE('',#91,#99,#57,.T.);
#121=EDGE_CURVE('',#100,#99,#84,.T.);
#122=EDGE_CURVE('',#92,#100,#58,.T.);
#123=EDGE_CURVE('',#96,#100,#59,.T.);
#124=EDGE_CURVE('',#99,#86,#60,.T.);
#125=ORIENTED_EDGE('',*,*,#101,.T.);
#126=ORIENTED_EDGE('',*,*,#102,.T.);
#127=ORIENTED_EDGE('',*,*,#103,.T.);
#128=ORIENTED_EDGE('',*,*,#104,.T.);
#129=ORIENTED_EDGE('',*,*,#104,.F.);
#130=ORIENTED_EDGE('',*,*,#105,.T.);
#131=ORIENTED_EDGE('',*,*,#106,.F.);
#132=ORIENTED_EDGE('',*,*,#107,.F.);
#133=ORIENTED_EDGE('',*,*,#103,.F.);
#134=ORIENTED_EDGE('',*,*,#108,.F.);
#135=ORIENTED_EDGE('',*,*,#109,.F.);
#136=ORIENTED_EDGE('',*,*,#110,.F.);
#137=ORIENTED_EDGE('',*,*,#111,.F.);
#138=ORIENTED_EDGE('',*,*,#105,.F.);
#139=ORIENTED_EDGE('',*,*,#112,.T.);
#140=ORIENTED_EDGE('',*,*,#113,.T.);
#141=ORIENTED_EDGE('',*,*,#114,.T.);
#142=ORIENTED_EDGE('',*,*,#106,.T.);
#143=ORIENTED_EDGE('',*,*,#111,.T.);
#144=ORIENTED_EDGE('',*,*,#115,.T.);
#145=ORIENTED_EDGE('',*,*,#112,.F.);
#146=ORIENTED_EDGE('',*,*,#116,.T.);
#147=ORIENTED_EDGE('',*,*,#117,.F.);
#148=ORIENTED_EDGE('',*,*,#118,.F.);
#149=ORIENTED_EDGE('',*,*,#113,.F.);
#150=ORIENTED_EDGE('',*,*,#118,.T.);
#151=ORIENTED_EDGE('',*,*,#119,.F.);
#152=ORIENTED_EDGE('',*,*,#116,.F.);
#153=ORIENTED_EDGE('',*,*,#109,.T.);
#154=ORIENTED_EDGE('',*,*,#120,.T.);
#155=ORIENTED_EDGE('',*,*,#121,.F.);
#156=ORIENTED_EDGE('',*,*,#122,.F.);
#157=ORIENTED_EDGE('',*,*,#115,.F.);
#158=ORIENTED_EDGE('',*,*,#110,.T.);
#159=ORIENTED_EDGE('',*,*,#122,.T.);
#160=ORIENTED_EDGE('',*,*,#123,.F.);
#161=ORIENTED_EDGE('',*,*,#102,.F.);
#162=ORIENTED_EDGE('',*,*,#124,.F.);
#163=ORIENTED_EDGE('',*,*,#120,.F.);
#164=ORIENTED_EDGE('',*,*,#108,.T.);
#165=ORIENTED_EDGE('',*,*,#101,.F.);
#166=ORIENTED_EDGE('',*,*,#107,.T.);
#167=ORIENTED_EDGE('',*,*,#114,.F.);
#168=ORIENTED_EDGE('',*,*,#123,.T.);
#169=ORIENTED_EDGE('',*,*,#121,.T.);
#170=ORIENTED_EDGE('',*,*,#124,.T.);
#171=ORIENTED_EDGE('',*,*,#117,.T.);
#172=ORIENTED_EDGE('',*,*,#119,.T.);
#173=CYLINDRICAL_SURFACE('',#207,0.15);
#174=CYLINDRICAL_SURFACE('',#215,0.15);
#175=CYLINDRICAL_SURFACE('',#217,2.5);
#176=CYLINDRICAL_SURFACE('',#220,3.1);
#177=ADVANCED_FACE('',(#23),#173,.T.);
#178=ADVANCED_FACE('',(#24),#17,.T.);
#179=ADVANCED_FACE('',(#25,#15),#18,.F.);
#180=ADVANCED_FACE('',(#26),#174,.T.);
#181=ADVANCED_FACE('',(#27),#175,.F.);
#182=ADVANCED_FACE('',(#28),#19,.F.);
#183=ADVANCED_FACE('',(#29),#176,.T.);
#184=ADVANCED_FACE('',(#30),#20,.T.);
#185=ADVANCED_FACE('',(#31),#21,.T.);
#186=ADVANCED_FACE('',(#32,#16),#22,.T.);
#187=CLOSED_SHELL('',(#177,#178,#179,#180,#181,#182,#183,#184,#185,#186));
#188=DERIVED_UNIT_ELEMENT(#190,1.);
#189=DERIVED_UNIT_ELEMENT(#335,3.);
#190=(
MASS_UNIT()
NAMED_UNIT(*)
SI_UNIT($,.GRAM.)
);
#191=DERIVED_UNIT((#188,#189));
#192=MEASURE_REPRESENTATION_ITEM('density measure',
POSITIVE_RATIO_MEASURE(1.29),#191);
#193=PROPERTY_DEFINITION_REPRESENTATION(#198,#195);
#194=PROPERTY_DEFINITION_REPRESENTATION(#199,#196);
#195=REPRESENTATION('material name',(#197),#332);
#196=REPRESENTATION('density',(#192),#332);
#197=DESCRIPTIVE_REPRESENTATION_ITEM('PVC, non plastifi\X\E9',
'PVC, non plastifi\X\E9');
#198=PROPERTY_DEFINITION('material property','material name',#342);
#199=PROPERTY_DEFINITION('material property','density of part',#342);
#200=DATE_TIME_ROLE('creation_date');
#201=APPLIED_DATE_AND_TIME_ASSIGNMENT(#202,#200,(#342));
#202=DATE_AND_TIME(#203,#204);
#203=CALENDAR_DATE(2015,18,8);
#204=LOCAL_TIME(6,38,6.,#205);
#205=COORDINATED_UNIVERSAL_TIME_OFFSET(0,0,.BEHIND.);
#206=AXIS2_PLACEMENT_3D('placement',#279,#225,#226);
#207=AXIS2_PLACEMENT_3D('',#280,#227,#228);
#208=AXIS2_PLACEMENT_3D('',#283,#229,#230);
#209=AXIS2_PLACEMENT_3D('',#287,#232,#233);
#210=AXIS2_PLACEMENT_3D('',#289,#235,#236);
#211=AXIS2_PLACEMENT_3D('',#295,#240,#241);
#212=AXIS2_PLACEMENT_3D('',#299,#243,#244);
#213=AXIS2_PLACEMENT_3D('',#302,#246,#247);
#214=AXIS2_PLACEMENT_3D('',#305,#248,#249);
#215=AXIS2_PLACEMENT_3D('',#307,#251,#252);
#216=AXIS2_PLACEMENT_3D('',#309,#253,#254);
#217=AXIS2_PLACEMENT_3D('',#311,#256,#257);
#218=AXIS2_PLACEMENT_3D('',#315,#259,#260);
#219=AXIS2_PLACEMENT_3D('',#317,#262,#263);
#220=AXIS2_PLACEMENT_3D('',#319,#265,#266);
#221=AXIS2_PLACEMENT_3D('',#323,#268,#269);
#222=AXIS2_PLACEMENT_3D('',#325,#271,#272);
#223=AXIS2_PLACEMENT_3D('',#327,#274,#275);
#224=AXIS2_PLACEMENT_3D('',#329,#277,#278);
#225=DIRECTION('axis',(0.,0.,1.));
#226=DIRECTION('refdir',(1.,0.,0.));
#227=DIRECTION('center_axis',(0.,0.,1.));
#228=DIRECTION('ref_axis',(-0.707106781186548,-0.707106781186547,0.));
#229=DIRECTION('center_axis',(0.,0.,-1.));
#230=DIRECTION('ref_axis',(-0.707106781186548,-0.707106781186547,0.));
#231=DIRECTION('',(0.,0.,-1.));
#232=DIRECTION('center_axis',(0.,0.,1.));
#233=DIRECTION('ref_axis',(-0.707106781186548,-0.707106781186547,0.));
#234=DIRECTION('',(0.,0.,1.));
#235=DIRECTION('center_axis',(0.,-1.,0.));
#236=DIRECTION('ref_axis',(1.,0.,0.));
#237=DIRECTION('',(1.,0.,0.));
#238=DIRECTION('',(0.,0.,-1.));
#239=DIRECTION('',(1.,0.,0.));
#240=DIRECTION('center_axis',(0.,0.,1.));
#241=DIRECTION('ref_axis',(1.,0.,0.));
#242=DIRECTION('',(0.,-1.,0.));
#243=DIRECTION('center_axis',(0.,0.,1.));
#244=DIRECTION('ref_axis',(0.935483870967742,-0.353369391938818,0.));
#245=DIRECTION('',(0.,1.,0.));
#246=DIRECTION('center_axis',(0.,0.,1.));
#247=DIRECTION('ref_axis',(0.707106781186548,-0.707106781186547,0.));
#248=DIRECTION('center_axis',(0.,0.,1.));
#249=DIRECTION('ref_axis',(0.932952303175248,-0.36,0.));
#250=DIRECTION('',(1.,0.,0.));
#251=DIRECTION('center_axis',(0.,0.,1.));
#252=DIRECTION('ref_axis',(0.707106781186548,-0.707106781186547,0.));
#253=DIRECTION('center_axis',(0.,0.,-1.));
#254=DIRECTION('ref_axis',(0.707106781186548,-0.707106781186547,0.));
#255=DIRECTION('',(0.,0.,1.));
#256=DIRECTION('center_axis',(0.,0.,1.));
#257=DIRECTION('ref_axis',(1.66533453693773E-16,1.,0.));
#258=DIRECTION('',(0.,0.,1.));
#259=DIRECTION('center_axis',(0.,0.,-1.));
#260=DIRECTION('ref_axis',(0.932952303175248,-0.36,0.));
#261=DIRECTION('',(0.,0.,1.));
#262=DIRECTION('center_axis',(0.,-1.,0.));
#263=DIRECTION('ref_axis',(1.,0.,0.));
#264=DIRECTION('',(-1.,0.,0.));
#265=DIRECTION('center_axis',(0.,0.,1.));
#266=DIRECTION('ref_axis',(1.79068229778251E-16,1.,0.));
#267=DIRECTION('',(0.,0.,1.));
#268=DIRECTION('center_axis',(0.,0.,1.));
#269=DIRECTION('ref_axis',(0.935483870967742,-0.353369391938818,0.));
#270=DIRECTION('',(0.,0.,1.));
#271=DIRECTION('center_axis',(1.,0.,0.));
#272=DIRECTION('ref_axis',(0.,1.,0.));
#273=DIRECTION('',(0.,1.,0.));
#274=DIRECTION('center_axis',(-1.,0.,0.));
#275=DIRECTION('ref_axis',(0.,-1.,0.));
#276=DIRECTION('',(0.,-1.,0.));
#277=DIRECTION('center_axis',(0.,0.,1.));
#278=DIRECTION('ref_axis',(1.,0.,0.));
#279=CARTESIAN_POINT('',(0.,0.,0.));
#280=CARTESIAN_POINT('Origin',(-2.75,0.15,0.));
#281=CARTESIAN_POINT('',(-2.75,-4.16333634234434E-16,3000.));
#282=CARTESIAN_POINT('',(-2.9,0.15,3000.));
#283=CARTESIAN_POINT('Origin',(-2.75,0.15,3000.));
#284=CARTESIAN_POINT('',(-2.9,0.15,0.));
#285=CARTESIAN_POINT('',(-2.9,0.15,0.));
#286=CARTESIAN_POINT('',(-2.75,-4.16333634234434E-16,0.));
#287=CARTESIAN_POINT('Origin',(-2.75,0.15,0.));
#288=CARTESIAN_POINT('',(-2.75,-4.16333634234434E-16,0.));
#289=CARTESIAN_POINT('Origin',(-2.9,-4.16333634234434E-16,0.));
#290=CARTESIAN_POINT('',(2.75,-4.16333634234434E-16,0.));
#291=CARTESIAN_POINT('',(-2.9,-4.16333634234434E-16,0.));
#292=CARTESIAN_POINT('',(2.75,-4.16333634234434E-16,3000.));
#293=CARTESIAN_POINT('',(2.75,-4.16333634234434E-16,0.));
#294=CARTESIAN_POINT('',(-2.9,-4.16333634234434E-16,3000.));
#295=CARTESIAN_POINT('Origin',(2.42595289161992E-17,1.90335611388833,0.));
#296=CARTESIAN_POINT('',(-2.9,0.804554884989665,0.));
#297=CARTESIAN_POINT('',(-2.9,0.804554884989665,0.));
#298=CARTESIAN_POINT('',(2.9,0.804554884989665,0.));
#299=CARTESIAN_POINT('Origin',(2.86542174586463E-18,1.9,0.));
#300=CARTESIAN_POINT('',(2.9,0.15,0.));
#301=CARTESIAN_POINT('',(2.9,-4.16333634234434E-16,0.));
#302=CARTESIAN_POINT('Origin',(2.75,0.15,0.));
#303=CARTESIAN_POINT('',(2.33238075793812,1.,0.));
#304=CARTESIAN_POINT('',(-2.33238075793812,1.,0.));
#305=CARTESIAN_POINT('Origin',(0.,1.9,0.));
#306=CARTESIAN_POINT('',(-1.16619037896906,1.,0.));
#307=CARTESIAN_POINT('Origin',(2.75,0.15,0.));
#308=CARTESIAN_POINT('',(2.9,0.15,3000.));
#309=CARTESIAN_POINT('Origin',(2.75,0.15,3000.));
#310=CARTESIAN_POINT('',(2.9,0.15,0.));
#311=CARTESIAN_POINT('Origin',(0.,1.9,0.));
#312=CARTESIAN_POINT('',(2.33238075793812,1.,3000.));
#313=CARTESIAN_POINT('',(2.33238075793812,1.,0.));
#314=CARTESIAN_POINT('',(-2.33238075793812,1.,3000.));
#315=CARTESIAN_POINT('Origin',(0.,1.9,3000.));
#316=CARTESIAN_POINT('',(-2.33238075793812,1.,0.));
#317=CARTESIAN_POINT('Origin',(-2.33238075793812,1.,0.));
#318=CARTESIAN_POINT('',(-1.16619037896906,1.,3000.));
#319=CARTESIAN_POINT('Origin',(2.86542174586463E-18,1.9,0.));
#320=CARTESIAN_POINT('',(-2.9,0.804554884989665,3000.));
#321=CARTESIAN_POINT('',(-2.9,0.804554884989665,0.));
#322=CARTESIAN_POINT('',(2.9,0.804554884989665,3000.));
#323=CARTESIAN_POINT('Origin',(2.86542174586463E-18,1.9,3000.));
#324=CARTESIAN_POINT('',(2.9,0.804554884989665,0.));
#325=CARTESIAN_POINT('Origin',(2.9,-4.16333634234434E-16,0.));
#326=CARTESIAN_POINT('',(2.9,-4.16333634234434E-16,3000.));
#327=CARTESIAN_POINT('Origin',(-2.9,0.804554884989665,0.));
#328=CARTESIAN_POINT('',(-2.9,0.804554884989665,3000.));
#329=CARTESIAN_POINT('Origin',(2.42595289161992E-17,1.90335611388833,3000.));
#330=UNCERTAINTY_MEASURE_WITH_UNIT(LENGTH_MEASURE(0.01),#334,
'DISTANCE_ACCURACY_VALUE',
'Maximum model space distance between geometric entities at asserted c
onnectivities');
#331=UNCERTAINTY_MEASURE_WITH_UNIT(LENGTH_MEASURE(0.01),#334,
'DISTANCE_ACCURACY_VALUE',
'Maximum model space distance between geometric entities at asserted c
onnectivities');
#332=(
GEOMETRIC_REPRESENTATION_CONTEXT(3)
GLOBAL_UNCERTAINTY_ASSIGNED_CONTEXT((#330))
GLOBAL_UNIT_ASSIGNED_CONTEXT((#334,#336,#337))
REPRESENTATION_CONTEXT('','3D')
);
#333=(
GEOMETRIC_REPRESENTATION_CONTEXT(3)
GLOBAL_UNCERTAINTY_ASSIGNED_CONTEXT((#331))
GLOBAL_UNIT_ASSIGNED_CONTEXT((#334,#336,#337))
REPRESENTATION_CONTEXT('','3D')
);
#334=(
LENGTH_UNIT()
NAMED_UNIT(*)
SI_UNIT(.MILLI.,.METRE.)
);
#335=(
LENGTH_UNIT()
NAMED_UNIT(*)
SI_UNIT(.CENTI.,.METRE.)
);
#336=(
NAMED_UNIT(*)
PLANE_ANGLE_UNIT()
SI_UNIT($,.RADIAN.)
);
#337=(
NAMED_UNIT(*)
SI_UNIT($,.STERADIAN.)
SOLID_ANGLE_UNIT()
);
#338=SHAPE_DEFINITION_REPRESENTATION(#339,#340);
#339=PRODUCT_DEFINITION_SHAPE('',$,#342);
#340=SHAPE_REPRESENTATION('',(#206),#332);
#341=PRODUCT_DEFINITION_CONTEXT('part definition',#346,'design');
#342=PRODUCT_DEFINITION('23176','23184',#343,#341);
#343=PRODUCT_DEFINITION_FORMATION('',$,#348);
#344=PRODUCT_RELATED_PRODUCT_CATEGORY('23184','23184',(#348));
#345=APPLICATION_PROTOCOL_DEFINITION('international standard',
'automotive_design',2009,#346);
#346=APPLICATION_CONTEXT(
'Core Data for Automotive Mechanical Design Process');
#347=PRODUCT_CONTEXT('part definition',#346,'mechanical');
#348=PRODUCT('23176','23184',$,(#347));
#349=PRESENTATION_STYLE_ASSIGNMENT((#350));
#350=SURFACE_STYLE_USAGE(.BOTH.,#353);
#351=SURFACE_STYLE_RENDERING_WITH_PROPERTIES($,#357,(#352));
#352=SURFACE_STYLE_TRANSPARENT(0.53999999165535);
#353=SURFACE_SIDE_STYLE('',(#354,#351));
#354=SURFACE_STYLE_FILL_AREA(#355);
#355=FILL_AREA_STYLE('',(#356));
#356=FILL_AREA_STYLE_COLOUR('',#357);
#357=COLOUR_RGB('',0.8,0.8,0.8);
ENDSEC;
END-ISO-10303-21;
