ISO-10303-21;
HEADER;
/* Generated by software containing ST-Developer
 * from STEP Tools, Inc. (www.steptools.com) 
 */

FILE_DESCRIPTION(
/* description */ (''),
/* implementation_level */ '2;1');

FILE_NAME(
/* name */ 
'R:\\BE\\Inventor\\Plans commerciaux\\Plans pour conversion\\STEP\\402
3.stp',
/* time_stamp */ '2020-04-27T17:23:39+02:00',
/* author */ ('Giuliano'),
/* organization */ (''),
/* preprocessor_version */ 'ST-DEVELOPER v17.2',
/* originating_system */ 'Autodesk Inventor 2019',
/* authorisation */ '');

FILE_SCHEMA (('AUTOMOTIVE_DESIGN { 1 0 10303 214 3 1 1 }'));
ENDSEC;

DATA;
#10=MECHANICAL_DESIGN_GEOMETRIC_PRESENTATION_REPRESENTATION('',(#95,#96,
#97,#98,#99,#100,#101),#208);
#11=SHAPE_REPRESENTATION_RELATIONSHIP('SRR','None',#215,#12);
#12=ADVANCED_BREP_SHAPE_REPRESENTATION('',(#13),#207);
#13=MANIFOLD_SOLID_BREP('Solide1',#108);
#14=FACE_BOUND('',#29,.T.);
#15=FACE_BOUND('',#32,.T.);
#16=PLANE('',#138);
#17=PLANE('',#142);
#18=TOROIDAL_SURFACE('',#131,8.,2.);
#19=FACE_OUTER_BOUND('',#25,.T.);
#20=FACE_OUTER_BOUND('',#26,.T.);
#21=FACE_OUTER_BOUND('',#27,.T.);
#22=FACE_OUTER_BOUND('',#28,.T.);
#23=FACE_OUTER_BOUND('',#30,.T.);
#24=FACE_OUTER_BOUND('',#31,.T.);
#25=EDGE_LOOP('',(#68,#69,#70,#71));
#26=EDGE_LOOP('',(#72,#73,#74,#75,#76));
#27=EDGE_LOOP('',(#77,#78,#79,#80,#81,#82));
#28=EDGE_LOOP('',(#83,#84));
#29=EDGE_LOOP('',(#85));
#30=EDGE_LOOP('',(#86,#87,#88,#89));
#31=EDGE_LOOP('',(#90));
#32=EDGE_LOOP('',(#91));
#33=LINE('',#183,#36);
#34=LINE('',#193,#37);
#35=LINE('',#202,#38);
#36=VECTOR('',#149,10.);
#37=VECTOR('',#162,6.);
#38=VECTOR('',#173,3.);
#39=CIRCLE('',#129,10.);
#40=CIRCLE('',#130,10.);
#41=CIRCLE('',#132,2.);
#42=CIRCLE('',#133,6.);
#43=CIRCLE('',#134,6.);
#44=CIRCLE('',#136,6.);
#45=CIRCLE('',#137,6.);
#46=CIRCLE('',#139,3.);
#47=CIRCLE('',#141,3.);
#48=VERTEX_POINT('',#180);
#49=VERTEX_POINT('',#182);
#50=VERTEX_POINT('',#186);
#51=VERTEX_POINT('',#188);
#52=VERTEX_POINT('',#192);
#53=VERTEX_POINT('',#194);
#54=VERTEX_POINT('',#198);
#55=VERTEX_POINT('',#201);
#56=EDGE_CURVE('',#48,#48,#39,.T.);
#57=EDGE_CURVE('',#48,#49,#33,.T.);
#58=EDGE_CURVE('',#49,#49,#40,.T.);
#59=EDGE_CURVE('',#48,#50,#41,.T.);
#60=EDGE_CURVE('',#50,#51,#42,.T.);
#61=EDGE_CURVE('',#51,#50,#43,.T.);
#62=EDGE_CURVE('',#51,#52,#34,.T.);
#63=EDGE_CURVE('',#53,#52,#44,.T.);
#64=EDGE_CURVE('',#52,#53,#45,.T.);
#65=EDGE_CURVE('',#54,#54,#46,.T.);
#66=EDGE_CURVE('',#54,#55,#35,.T.);
#67=EDGE_CURVE('',#55,#55,#47,.T.);
#68=ORIENTED_EDGE('',*,*,#56,.F.);
#69=ORIENTED_EDGE('',*,*,#57,.T.);
#70=ORIENTED_EDGE('',*,*,#58,.F.);
#71=ORIENTED_EDGE('',*,*,#57,.F.);
#72=ORIENTED_EDGE('',*,*,#56,.T.);
#73=ORIENTED_EDGE('',*,*,#59,.T.);
#74=ORIENTED_EDGE('',*,*,#60,.T.);
#75=ORIENTED_EDGE('',*,*,#61,.T.);
#76=ORIENTED_EDGE('',*,*,#59,.F.);
#77=ORIENTED_EDGE('',*,*,#60,.F.);
#78=ORIENTED_EDGE('',*,*,#61,.F.);
#79=ORIENTED_EDGE('',*,*,#62,.T.);
#80=ORIENTED_EDGE('',*,*,#63,.F.);
#81=ORIENTED_EDGE('',*,*,#64,.F.);
#82=ORIENTED_EDGE('',*,*,#62,.F.);
#83=ORIENTED_EDGE('',*,*,#63,.T.);
#84=ORIENTED_EDGE('',*,*,#64,.T.);
#85=ORIENTED_EDGE('',*,*,#65,.F.);
#86=ORIENTED_EDGE('',*,*,#65,.T.);
#87=ORIENTED_EDGE('',*,*,#66,.T.);
#88=ORIENTED_EDGE('',*,*,#67,.F.);
#89=ORIENTED_EDGE('',*,*,#66,.F.);
#90=ORIENTED_EDGE('',*,*,#58,.T.);
#91=ORIENTED_EDGE('',*,*,#67,.T.);
#92=CYLINDRICAL_SURFACE('',#128,10.);
#93=CYLINDRICAL_SURFACE('',#135,6.);
#94=CYLINDRICAL_SURFACE('',#140,3.);
#95=STYLED_ITEM('',(#225),#102);
#96=STYLED_ITEM('',(#225),#103);
#97=STYLED_ITEM('',(#225),#104);
#98=STYLED_ITEM('',(#225),#105);
#99=STYLED_ITEM('',(#225),#106);
#100=STYLED_ITEM('',(#225),#107);
#101=STYLED_ITEM('',(#224),#13);
#102=ADVANCED_FACE('',(#19),#92,.T.);
#103=ADVANCED_FACE('',(#20),#18,.T.);
#104=ADVANCED_FACE('',(#21),#93,.F.);
#105=ADVANCED_FACE('',(#22,#14),#16,.T.);
#106=ADVANCED_FACE('',(#23),#94,.F.);
#107=ADVANCED_FACE('',(#24,#15),#17,.T.);
#108=CLOSED_SHELL('',(#102,#103,#104,#105,#106,#107));
#109=DERIVED_UNIT_ELEMENT(#111,1.);
#110=DERIVED_UNIT_ELEMENT(#210,3.);
#111=(
MASS_UNIT()
NAMED_UNIT(*)
SI_UNIT($,.GRAM.)
);
#112=DERIVED_UNIT((#109,#110));
#113=MEASURE_REPRESENTATION_ITEM('density measure',
POSITIVE_RATIO_MEASURE(7.86),#112);
#114=PROPERTY_DEFINITION_REPRESENTATION(#119,#116);
#115=PROPERTY_DEFINITION_REPRESENTATION(#120,#117);
#116=REPRESENTATION('material name',(#118),#207);
#117=REPRESENTATION('density',(#113),#207);
#118=DESCRIPTIVE_REPRESENTATION_ITEM('Acier doux','Acier doux');
#119=PROPERTY_DEFINITION('material property','material name',#217);
#120=PROPERTY_DEFINITION('material property','density of part',#217);
#121=DATE_TIME_ROLE('creation_date');
#122=APPLIED_DATE_AND_TIME_ASSIGNMENT(#123,#121,(#217));
#123=DATE_AND_TIME(#124,#125);
#124=CALENDAR_DATE(2020,27,4);
#125=LOCAL_TIME(15,23,2.,#126);
#126=COORDINATED_UNIVERSAL_TIME_OFFSET(0,0,.BEHIND.);
#127=AXIS2_PLACEMENT_3D('placement',#178,#143,#144);
#128=AXIS2_PLACEMENT_3D('',#179,#145,#146);
#129=AXIS2_PLACEMENT_3D('',#181,#147,#148);
#130=AXIS2_PLACEMENT_3D('',#184,#150,#151);
#131=AXIS2_PLACEMENT_3D('',#185,#152,#153);
#132=AXIS2_PLACEMENT_3D('',#187,#154,#155);
#133=AXIS2_PLACEMENT_3D('',#189,#156,#157);
#134=AXIS2_PLACEMENT_3D('',#190,#158,#159);
#135=AXIS2_PLACEMENT_3D('',#191,#160,#161);
#136=AXIS2_PLACEMENT_3D('',#195,#163,#164);
#137=AXIS2_PLACEMENT_3D('',#196,#165,#166);
#138=AXIS2_PLACEMENT_3D('',#197,#167,#168);
#139=AXIS2_PLACEMENT_3D('',#199,#169,#170);
#140=AXIS2_PLACEMENT_3D('',#200,#171,#172);
#141=AXIS2_PLACEMENT_3D('',#203,#174,#175);
#142=AXIS2_PLACEMENT_3D('',#204,#176,#177);
#143=DIRECTION('axis',(0.,0.,1.));
#144=DIRECTION('refdir',(1.,0.,0.));
#145=DIRECTION('center_axis',(0.,0.,1.));
#146=DIRECTION('ref_axis',(-1.,0.,0.));
#147=DIRECTION('center_axis',(0.,0.,1.));
#148=DIRECTION('ref_axis',(-1.,0.,0.));
#149=DIRECTION('',(0.,0.,-1.));
#150=DIRECTION('center_axis',(0.,0.,-1.));
#151=DIRECTION('ref_axis',(-1.,0.,0.));
#152=DIRECTION('center_axis',(0.,0.,-1.));
#153=DIRECTION('ref_axis',(-1.,0.,0.));
#154=DIRECTION('center_axis',(-1.22464679914735E-16,-1.,0.));
#155=DIRECTION('ref_axis',(1.,-1.22464679914735E-16,0.));
#156=DIRECTION('center_axis',(0.,0.,-1.));
#157=DIRECTION('ref_axis',(-1.,-1.22460635382238E-16,0.));
#158=DIRECTION('center_axis',(0.,0.,-1.));
#159=DIRECTION('ref_axis',(-1.,-1.22460635382238E-16,0.));
#160=DIRECTION('center_axis',(0.,0.,1.));
#161=DIRECTION('ref_axis',(1.,0.,0.));
#162=DIRECTION('',(0.,0.,-1.));
#163=DIRECTION('center_axis',(0.,0.,1.));
#164=DIRECTION('ref_axis',(1.,0.,0.));
#165=DIRECTION('center_axis',(0.,0.,1.));
#166=DIRECTION('ref_axis',(1.,0.,0.));
#167=DIRECTION('center_axis',(0.,0.,1.));
#168=DIRECTION('ref_axis',(1.,0.,0.));
#169=DIRECTION('center_axis',(0.,0.,1.));
#170=DIRECTION('ref_axis',(1.,0.,0.));
#171=DIRECTION('center_axis',(0.,0.,1.));
#172=DIRECTION('ref_axis',(1.,0.,0.));
#173=DIRECTION('',(0.,0.,-1.));
#174=DIRECTION('center_axis',(0.,0.,1.));
#175=DIRECTION('ref_axis',(1.,0.,0.));
#176=DIRECTION('center_axis',(0.,0.,-1.));
#177=DIRECTION('ref_axis',(-1.,0.,0.));
#178=CARTESIAN_POINT('',(0.,0.,0.));
#179=CARTESIAN_POINT('Origin',(0.,0.,0.));
#180=CARTESIAN_POINT('',(10.,1.22460635382238E-15,10.));
#181=CARTESIAN_POINT('Origin',(0.,0.,10.));
#182=CARTESIAN_POINT('',(10.,1.22460635382238E-15,0.));
#183=CARTESIAN_POINT('',(10.,1.22464679914735E-15,0.));
#184=CARTESIAN_POINT('Origin',(0.,0.,0.));
#185=CARTESIAN_POINT('Origin',(0.,0.,10.));
#186=CARTESIAN_POINT('',(6.,0.,10.));
#187=CARTESIAN_POINT('Origin',(8.,-9.79717439317883E-16,10.));
#188=CARTESIAN_POINT('',(-6.,-7.34788079488412E-16,10.));
#189=CARTESIAN_POINT('Origin',(0.,0.,10.));
#190=CARTESIAN_POINT('Origin',(0.,0.,10.));
#191=CARTESIAN_POINT('Origin',(0.,0.,8.5));
#192=CARTESIAN_POINT('',(-6.,-7.34788079488412E-16,5.));
#193=CARTESIAN_POINT('',(-6.,-7.34788079488412E-16,8.5));
#194=CARTESIAN_POINT('',(6.,0.,5.));
#195=CARTESIAN_POINT('Origin',(0.,0.,5.));
#196=CARTESIAN_POINT('Origin',(0.,0.,5.));
#197=CARTESIAN_POINT('Origin',(0.,0.,5.));
#198=CARTESIAN_POINT('',(-3.,-3.67381906146713E-16,5.));
#199=CARTESIAN_POINT('Origin',(0.,0.,5.));
#200=CARTESIAN_POINT('Origin',(0.,0.,-18.7245829914744));
#201=CARTESIAN_POINT('',(-3.,-3.67381906146713E-16,0.));
#202=CARTESIAN_POINT('',(-3.,-3.67394039744206E-16,-18.7245829914744));
#203=CARTESIAN_POINT('Origin',(0.,0.,0.));
#204=CARTESIAN_POINT('Origin',(0.,0.,0.));
#205=UNCERTAINTY_MEASURE_WITH_UNIT(LENGTH_MEASURE(0.01),#209,
'DISTANCE_ACCURACY_VALUE',
'Maximum model space distance between geometric entities at asserted c
onnectivities');
#206=UNCERTAINTY_MEASURE_WITH_UNIT(LENGTH_MEASURE(0.01),#209,
'DISTANCE_ACCURACY_VALUE',
'Maximum model space distance between geometric entities at asserted c
onnectivities');
#207=(
GEOMETRIC_REPRESENTATION_CONTEXT(3)
GLOBAL_UNCERTAINTY_ASSIGNED_CONTEXT((#205))
GLOBAL_UNIT_ASSIGNED_CONTEXT((#209,#211,#212))
REPRESENTATION_CONTEXT('','3D')
);
#208=(
GEOMETRIC_REPRESENTATION_CONTEXT(3)
GLOBAL_UNCERTAINTY_ASSIGNED_CONTEXT((#206))
GLOBAL_UNIT_ASSIGNED_CONTEXT((#209,#211,#212))
REPRESENTATION_CONTEXT('','3D')
);
#209=(
LENGTH_UNIT()
NAMED_UNIT(*)
SI_UNIT(.MILLI.,.METRE.)
);
#210=(
LENGTH_UNIT()
NAMED_UNIT(*)
SI_UNIT(.CENTI.,.METRE.)
);
#211=(
NAMED_UNIT(*)
PLANE_ANGLE_UNIT()
SI_UNIT($,.RADIAN.)
);
#212=(
NAMED_UNIT(*)
SI_UNIT($,.STERADIAN.)
SOLID_ANGLE_UNIT()
);
#213=SHAPE_DEFINITION_REPRESENTATION(#214,#215);
#214=PRODUCT_DEFINITION_SHAPE('',$,#217);
#215=SHAPE_REPRESENTATION('',(#127),#207);
#216=PRODUCT_DEFINITION_CONTEXT('part definition',#221,'design');
#217=PRODUCT_DEFINITION('Pi\X\E8ce2','Pi\X\E8ce2',#218,#216);
#218=PRODUCT_DEFINITION_FORMATION('',$,#223);
#219=PRODUCT_RELATED_PRODUCT_CATEGORY('Pi\X\E8ce2','Pi\X\E8ce2',(#223));
#220=APPLICATION_PROTOCOL_DEFINITION('international standard',
'automotive_design',2009,#221);
#221=APPLICATION_CONTEXT(
'Core Data for Automotive Mechanical Design Process');
#222=PRODUCT_CONTEXT('part definition',#221,'mechanical');
#223=PRODUCT('Pi\X\E8ce2','Pi\X\E8ce2',$,(#222));
#224=PRESENTATION_STYLE_ASSIGNMENT((#226));
#225=PRESENTATION_STYLE_ASSIGNMENT((#227));
#226=SURFACE_STYLE_USAGE(.BOTH.,#232);
#227=SURFACE_STYLE_USAGE(.BOTH.,#233);
#228=SURFACE_STYLE_RENDERING_WITH_PROPERTIES($,#240,(#230));
#229=SURFACE_STYLE_RENDERING_WITH_PROPERTIES($,#241,(#231));
#230=SURFACE_STYLE_TRANSPARENT(0.);
#231=SURFACE_STYLE_TRANSPARENT(0.);
#232=SURFACE_SIDE_STYLE('',(#234,#228));
#233=SURFACE_SIDE_STYLE('',(#235,#229));
#234=SURFACE_STYLE_FILL_AREA(#236);
#235=SURFACE_STYLE_FILL_AREA(#237);
#236=FILL_AREA_STYLE('',(#238));
#237=FILL_AREA_STYLE('',(#239));
#238=FILL_AREA_STYLE_COLOUR('',#240);
#239=FILL_AREA_STYLE_COLOUR('',#241);
#240=COLOUR_RGB('',0.87843137254902,0.874509803921569,0.858823529411765);
#241=COLOUR_RGB('',0.752941176470588,0.752941176470588,0.752941176470588);
ENDSEC;
END-ISO-10303-21;
