ISO-10303-21;
HEADER;
/* Generated by software containing ST-Developer
 * from STEP Tools, Inc. (www.steptools.com) 
 */

FILE_DESCRIPTION(
/* description */ (''),
/* implementation_level */ '2;1');

FILE_NAME(
/* name */ 'R:\\BE\\Inventor\\PRODUITS\\STP\\ST00947.stp',
/* time_stamp */ '2017-06-30T13:31:54+02:00',
/* author */ ('Giuliano'),
/* organization */ (''),
/* preprocessor_version */ 'ST-DEVELOPER v16.5',
/* originating_system */ 'Autodesk Inventor 2017',
/* authorisation */ '');

FILE_SCHEMA (('AUTOMOTIVE_DESIGN { 1 0 10303 214 3 1 1 }'));
ENDSEC;

DATA;
#10=MECHANICAL_DESIGN_GEOMETRIC_PRESENTATION_REPRESENTATION('',(#13),#169);
#11=SHAPE_REPRESENTATION_RELATIONSHIP('SRR','None',#178,#12);
#12=ADVANCED_BREP_SHAPE_REPRESENTATION('',(#14),#168);
#13=STYLED_ITEM('',(#187),#14);
#14=MANIFOLD_SOLID_BREP('Solide1',#92);
#15=TOROIDAL_SURFACE('',#105,11.,5.00000000000071);
#16=CYLINDRICAL_SURFACE('',#103,5.9999999999993);
#17=CYLINDRICAL_SURFACE('',#109,20.);
#18=CYLINDRICAL_SURFACE('',#113,3.50000000000001);
#19=FACE_BOUND('',#34,.T.);
#20=FACE_BOUND('',#36,.T.);
#21=FACE_BOUND('',#38,.T.);
#22=FACE_BOUND('',#40,.T.);
#23=FACE_BOUND('',#42,.T.);
#24=FACE_BOUND('',#44,.T.);
#25=FACE_BOUND('',#46,.T.);
#26=FACE_OUTER_BOUND('',#33,.T.);
#27=FACE_OUTER_BOUND('',#35,.T.);
#28=FACE_OUTER_BOUND('',#37,.T.);
#29=FACE_OUTER_BOUND('',#39,.T.);
#30=FACE_OUTER_BOUND('',#41,.T.);
#31=FACE_OUTER_BOUND('',#43,.T.);
#32=FACE_OUTER_BOUND('',#45,.T.);
#33=EDGE_LOOP('',(#68));
#34=EDGE_LOOP('',(#69));
#35=EDGE_LOOP('',(#70));
#36=EDGE_LOOP('',(#71));
#37=EDGE_LOOP('',(#72));
#38=EDGE_LOOP('',(#73));
#39=EDGE_LOOP('',(#74));
#40=EDGE_LOOP('',(#75));
#41=EDGE_LOOP('',(#76));
#42=EDGE_LOOP('',(#77));
#43=EDGE_LOOP('',(#78));
#44=EDGE_LOOP('',(#79));
#45=EDGE_LOOP('',(#80));
#46=EDGE_LOOP('',(#81));
#47=CIRCLE('',#101,5.9999999999993);
#48=CIRCLE('',#102,3.50000000000001);
#49=CIRCLE('',#104,5.9999999999993);
#50=CIRCLE('',#106,16.0000000000007);
#51=CIRCLE('',#108,20.);
#52=CIRCLE('',#110,20.);
#53=CIRCLE('',#112,3.50000000000001);
#54=VERTEX_POINT('',#146);
#55=VERTEX_POINT('',#148);
#56=VERTEX_POINT('',#151);
#57=VERTEX_POINT('',#154);
#58=VERTEX_POINT('',#157);
#59=VERTEX_POINT('',#160);
#60=VERTEX_POINT('',#163);
#61=EDGE_CURVE('',#54,#54,#47,.T.);
#62=EDGE_CURVE('',#55,#55,#48,.T.);
#63=EDGE_CURVE('',#56,#56,#49,.T.);
#64=EDGE_CURVE('',#57,#57,#50,.T.);
#65=EDGE_CURVE('',#58,#58,#51,.T.);
#66=EDGE_CURVE('',#59,#59,#52,.T.);
#67=EDGE_CURVE('',#60,#60,#53,.T.);
#68=ORIENTED_EDGE('',*,*,#61,.F.);
#69=ORIENTED_EDGE('',*,*,#62,.T.);
#70=ORIENTED_EDGE('',*,*,#63,.F.);
#71=ORIENTED_EDGE('',*,*,#61,.T.);
#72=ORIENTED_EDGE('',*,*,#64,.F.);
#73=ORIENTED_EDGE('',*,*,#63,.T.);
#74=ORIENTED_EDGE('',*,*,#65,.F.);
#75=ORIENTED_EDGE('',*,*,#64,.T.);
#76=ORIENTED_EDGE('',*,*,#66,.F.);
#77=ORIENTED_EDGE('',*,*,#65,.T.);
#78=ORIENTED_EDGE('',*,*,#66,.T.);
#79=ORIENTED_EDGE('',*,*,#67,.F.);
#80=ORIENTED_EDGE('',*,*,#62,.F.);
#81=ORIENTED_EDGE('',*,*,#67,.T.);
#82=PLANE('',#100);
#83=PLANE('',#107);
#84=PLANE('',#111);
#85=ADVANCED_FACE('',(#26,#19),#82,.T.);
#86=ADVANCED_FACE('',(#27,#20),#16,.F.);
#87=ADVANCED_FACE('',(#28,#21),#15,.T.);
#88=ADVANCED_FACE('',(#29,#22),#83,.T.);
#89=ADVANCED_FACE('',(#30,#23),#17,.T.);
#90=ADVANCED_FACE('',(#31,#24),#84,.T.);
#91=ADVANCED_FACE('',(#32,#25),#18,.F.);
#92=CLOSED_SHELL('',(#85,#86,#87,#88,#89,#90,#91));
#93=DATE_TIME_ROLE('creation_date');
#94=APPLIED_DATE_AND_TIME_ASSIGNMENT(#95,#93,(#180));
#95=DATE_AND_TIME(#96,#97);
#96=CALENDAR_DATE(2004,23,2);
#97=LOCAL_TIME(8,54,16.,#98);
#98=COORDINATED_UNIVERSAL_TIME_OFFSET(0,0,.BEHIND.);
#99=AXIS2_PLACEMENT_3D('placement',#144,#114,#115);
#100=AXIS2_PLACEMENT_3D('',#145,#116,#117);
#101=AXIS2_PLACEMENT_3D('',#147,#118,#119);
#102=AXIS2_PLACEMENT_3D('',#149,#120,#121);
#103=AXIS2_PLACEMENT_3D('',#150,#122,#123);
#104=AXIS2_PLACEMENT_3D('',#152,#124,#125);
#105=AXIS2_PLACEMENT_3D('',#153,#126,#127);
#106=AXIS2_PLACEMENT_3D('',#155,#128,#129);
#107=AXIS2_PLACEMENT_3D('',#156,#130,#131);
#108=AXIS2_PLACEMENT_3D('',#158,#132,#133);
#109=AXIS2_PLACEMENT_3D('',#159,#134,#135);
#110=AXIS2_PLACEMENT_3D('',#161,#136,#137);
#111=AXIS2_PLACEMENT_3D('',#162,#138,#139);
#112=AXIS2_PLACEMENT_3D('',#164,#140,#141);
#113=AXIS2_PLACEMENT_3D('',#165,#142,#143);
#114=DIRECTION('axis',(0.,0.,1.));
#115=DIRECTION('refdir',(1.,0.,0.));
#116=DIRECTION('center_axis',(0.,1.,0.));
#117=DIRECTION('ref_axis',(0.,0.,1.));
#118=DIRECTION('center_axis',(0.,-1.,0.));
#119=DIRECTION('ref_axis',(1.,0.,0.));
#120=DIRECTION('center_axis',(0.,-1.,0.));
#121=DIRECTION('ref_axis',(1.,0.,0.));
#122=DIRECTION('center_axis',(0.,-1.,0.));
#123=DIRECTION('ref_axis',(1.,0.,0.));
#124=DIRECTION('center_axis',(0.,-1.,0.));
#125=DIRECTION('ref_axis',(1.,0.,0.));
#126=DIRECTION('center_axis',(0.,-1.,0.));
#127=DIRECTION('ref_axis',(0.,0.,-1.));
#128=DIRECTION('center_axis',(0.,-1.,0.));
#129=DIRECTION('ref_axis',(1.,0.,0.));
#130=DIRECTION('center_axis',(0.,1.,0.));
#131=DIRECTION('ref_axis',(0.,0.,1.));
#132=DIRECTION('center_axis',(0.,-1.,0.));
#133=DIRECTION('ref_axis',(1.,0.,0.));
#134=DIRECTION('center_axis',(0.,-1.,0.));
#135=DIRECTION('ref_axis',(1.,0.,0.));
#136=DIRECTION('center_axis',(0.,-1.,0.));
#137=DIRECTION('ref_axis',(1.,0.,0.));
#138=DIRECTION('center_axis',(0.,-1.,0.));
#139=DIRECTION('ref_axis',(0.,0.,-1.));
#140=DIRECTION('center_axis',(0.,-1.,0.));
#141=DIRECTION('ref_axis',(1.,0.,0.));
#142=DIRECTION('center_axis',(0.,-1.,0.));
#143=DIRECTION('ref_axis',(1.,0.,0.));
#144=CARTESIAN_POINT('',(0.,0.,0.));
#145=CARTESIAN_POINT('Origin',(24.6590511443774,13.7760873577461,0.));
#146=CARTESIAN_POINT('',(25.909051144377,13.7760873577461,0.));
#147=CARTESIAN_POINT('Origin',(19.9090511443777,13.7760873577461,0.));
#148=CARTESIAN_POINT('',(23.4090511443777,13.7760873577461,0.));
#149=CARTESIAN_POINT('Origin',(19.9090511443777,13.7760873577461,0.));
#150=CARTESIAN_POINT('Origin',(19.9090511443777,16.7760873577461,0.));
#151=CARTESIAN_POINT('',(25.909051144377,19.776087357746,0.));
#152=CARTESIAN_POINT('Origin',(19.9090511443777,19.776087357746,0.));
#153=CARTESIAN_POINT('Origin',(19.9090511443777,19.776087357746,0.));
#154=CARTESIAN_POINT('',(35.9090511443785,19.776087357746,0.));
#155=CARTESIAN_POINT('Origin',(19.9090511443777,19.776087357746,0.));
#156=CARTESIAN_POINT('Origin',(37.9090511443781,19.776087357746,0.));
#157=CARTESIAN_POINT('',(39.9090511443777,19.776087357746,0.));
#158=CARTESIAN_POINT('Origin',(19.9090511443777,19.776087357746,0.));
#159=CARTESIAN_POINT('Origin',(19.9090511443777,9.77608735774602,0.));
#160=CARTESIAN_POINT('',(39.9090511443777,-0.223912642253978,0.));
#161=CARTESIAN_POINT('Origin',(19.9090511443777,-0.223912642253978,0.));
#162=CARTESIAN_POINT('Origin',(31.6590511443777,-0.223912642253978,0.));
#163=CARTESIAN_POINT('',(23.4090511443777,-0.223912642253978,0.));
#164=CARTESIAN_POINT('Origin',(19.9090511443777,-0.223912642253978,0.));
#165=CARTESIAN_POINT('Origin',(19.9090511443777,6.77608735774605,0.));
#166=UNCERTAINTY_MEASURE_WITH_UNIT(LENGTH_MEASURE(0.01),#170,
'DISTANCE_ACCURACY_VALUE',
'Maximum model space distance between geometric entities at asserted c
onnectivities');
#167=UNCERTAINTY_MEASURE_WITH_UNIT(LENGTH_MEASURE(1.E-6),#170,
'DISTANCE_ACCURACY_VALUE',
'Maximum model space distance between geometric entities at asserted c
onnectivities');
#168=(
GEOMETRIC_REPRESENTATION_CONTEXT(3)
GLOBAL_UNCERTAINTY_ASSIGNED_CONTEXT((#166))
GLOBAL_UNIT_ASSIGNED_CONTEXT((#170,#173,#171))
REPRESENTATION_CONTEXT('','3D')
);
#169=(
GEOMETRIC_REPRESENTATION_CONTEXT(3)
GLOBAL_UNCERTAINTY_ASSIGNED_CONTEXT((#167))
GLOBAL_UNIT_ASSIGNED_CONTEXT((#170,#173,#171))
REPRESENTATION_CONTEXT('','3D')
);
#170=(
LENGTH_UNIT()
NAMED_UNIT(*)
SI_UNIT(.MILLI.,.METRE.)
);
#171=(
NAMED_UNIT(*)
SI_UNIT($,.STERADIAN.)
SOLID_ANGLE_UNIT()
);
#172=DIMENSIONAL_EXPONENTS(0.,0.,0.,0.,0.,0.,0.);
#173=(
CONVERSION_BASED_UNIT('degree',#175)
NAMED_UNIT(#172)
PLANE_ANGLE_UNIT()
);
#174=(
NAMED_UNIT(*)
PLANE_ANGLE_UNIT()
SI_UNIT($,.RADIAN.)
);
#175=PLANE_ANGLE_MEASURE_WITH_UNIT(PLANE_ANGLE_MEASURE(0.01745329252),#174);
#176=SHAPE_DEFINITION_REPRESENTATION(#177,#178);
#177=PRODUCT_DEFINITION_SHAPE('',$,#180);
#178=SHAPE_REPRESENTATION('',(#99),#168);
#179=PRODUCT_DEFINITION_CONTEXT('part definition',#184,'design');
#180=PRODUCT_DEFINITION('2692','2692',#181,#179);
#181=PRODUCT_DEFINITION_FORMATION('',$,#186);
#182=PRODUCT_RELATED_PRODUCT_CATEGORY('2692','2692',(#186));
#183=APPLICATION_PROTOCOL_DEFINITION('international standard',
'automotive_design',2009,#184);
#184=APPLICATION_CONTEXT(
'Core Data for Automotive Mechanical Design Process');
#185=PRODUCT_CONTEXT('part definition',#184,'mechanical');
#186=PRODUCT('2692','2692',$,(#185));
#187=PRESENTATION_STYLE_ASSIGNMENT((#188));
#188=SURFACE_STYLE_USAGE(.BOTH.,#189);
#189=SURFACE_SIDE_STYLE('',(#190));
#190=SURFACE_STYLE_FILL_AREA(#191);
#191=FILL_AREA_STYLE('',(#192));
#192=FILL_AREA_STYLE_COLOUR('',#193);
#193=COLOUR_RGB('',0.250980392156863,0.250980392156863,0.250980392156863);
ENDSEC;
END-ISO-10303-21;
