ISO-10303-21;
HEADER;
/* Generated by software containing ST-Developer
 * from STEP Tools, Inc. (www.steptools.com) 
 */

FILE_DESCRIPTION(
/* description */ (''),
/* implementation_level */ '2;1');

FILE_NAME(
/* name */ 'R:\\BE\\Transfert-temporaire\\20021RS-3.stp',
/* time_stamp */ '2019-08-05T13:44:59+02:00',
/* author */ ('DIDIERR'),
/* organization */ (''),
/* preprocessor_version */ 'ST-DEVELOPER v17.2',
/* originating_system */ 'Autodesk Inventor 2019',
/* authorisation */ '');

FILE_SCHEMA (('AUTOMOTIVE_DESIGN { 1 0 10303 214 3 1 1 }'));
ENDSEC;

DATA;
#10=MECHANICAL_DESIGN_GEOMETRIC_PRESENTATION_REPRESENTATION('',(#13),#465);
#11=SHAPE_REPRESENTATION_RELATIONSHIP('SRR','None',#472,#12);
#12=ADVANCED_BREP_SHAPE_REPRESENTATION('',(#14),#464);
#13=STYLED_ITEM('',(#481),#14);
#14=MANIFOLD_SOLID_BREP('Solide1',#263);
#15=PLANE('',#286);
#16=PLANE('',#287);
#17=PLANE('',#288);
#18=PLANE('',#298);
#19=PLANE('',#299);
#20=PLANE('',#300);
#21=PLANE('',#307);
#22=PLANE('',#308);
#23=FACE_OUTER_BOUND('',#37,.T.);
#24=FACE_OUTER_BOUND('',#38,.T.);
#25=FACE_OUTER_BOUND('',#39,.T.);
#26=FACE_OUTER_BOUND('',#40,.T.);
#27=FACE_OUTER_BOUND('',#41,.T.);
#28=FACE_OUTER_BOUND('',#42,.T.);
#29=FACE_OUTER_BOUND('',#43,.T.);
#30=FACE_OUTER_BOUND('',#44,.T.);
#31=FACE_OUTER_BOUND('',#45,.T.);
#32=FACE_OUTER_BOUND('',#46,.T.);
#33=FACE_OUTER_BOUND('',#47,.T.);
#34=FACE_OUTER_BOUND('',#48,.T.);
#35=FACE_OUTER_BOUND('',#49,.T.);
#36=FACE_OUTER_BOUND('',#50,.T.);
#37=EDGE_LOOP('',(#171,#172,#173,#174));
#38=EDGE_LOOP('',(#175,#176,#177,#178));
#39=EDGE_LOOP('',(#179,#180,#181,#182));
#40=EDGE_LOOP('',(#183,#184,#185,#186));
#41=EDGE_LOOP('',(#187,#188,#189,#190));
#42=EDGE_LOOP('',(#191,#192,#193,#194));
#43=EDGE_LOOP('',(#195,#196,#197,#198));
#44=EDGE_LOOP('',(#199,#200,#201,#202));
#45=EDGE_LOOP('',(#203,#204,#205,#206));
#46=EDGE_LOOP('',(#207,#208,#209,#210));
#47=EDGE_LOOP('',(#211,#212,#213,#214));
#48=EDGE_LOOP('',(#215,#216,#217,#218));
#49=EDGE_LOOP('',(#219,#220,#221,#222,#223,#224,#225,#226,#227,#228,#229,
#230));
#50=EDGE_LOOP('',(#231,#232,#233,#234,#235,#236,#237,#238,#239,#240,#241,
#242));
#51=LINE('',#393,#75);
#52=LINE('',#396,#76);
#53=LINE('',#399,#77);
#54=LINE('',#401,#78);
#55=LINE('',#402,#79);
#56=LINE('',#405,#80);
#57=LINE('',#407,#81);
#58=LINE('',#408,#82);
#59=LINE('',#411,#83);
#60=LINE('',#413,#84);
#61=LINE('',#414,#85);
#62=LINE('',#419,#86);
#63=LINE('',#425,#87);
#64=LINE('',#431,#88);
#65=LINE('',#435,#89);
#66=LINE('',#437,#90);
#67=LINE('',#438,#91);
#68=LINE('',#441,#92);
#69=LINE('',#443,#93);
#70=LINE('',#444,#94);
#71=LINE('',#447,#95);
#72=LINE('',#449,#96);
#73=LINE('',#450,#97);
#74=LINE('',#455,#98);
#75=VECTOR('',#315,10.);
#76=VECTOR('',#318,10.);
#77=VECTOR('',#321,10.);
#78=VECTOR('',#322,10.);
#79=VECTOR('',#323,10.);
#80=VECTOR('',#326,10.);
#81=VECTOR('',#327,10.);
#82=VECTOR('',#328,10.);
#83=VECTOR('',#331,10.);
#84=VECTOR('',#332,10.);
#85=VECTOR('',#333,10.);
#86=VECTOR('',#338,10.);
#87=VECTOR('',#345,10.);
#88=VECTOR('',#352,10.);
#89=VECTOR('',#357,10.);
#90=VECTOR('',#358,10.);
#91=VECTOR('',#359,10.);
#92=VECTOR('',#362,10.);
#93=VECTOR('',#363,10.);
#94=VECTOR('',#364,10.);
#95=VECTOR('',#367,10.);
#96=VECTOR('',#368,10.);
#97=VECTOR('',#369,10.);
#98=VECTOR('',#374,10.);
#99=CIRCLE('',#284,3.00000000000001);
#100=CIRCLE('',#285,3.00000000000001);
#101=CIRCLE('',#290,6.00000000000001);
#102=CIRCLE('',#291,6.00000000000001);
#103=CIRCLE('',#293,6.5);
#104=CIRCLE('',#294,6.5);
#105=CIRCLE('',#296,6.00000000000001);
#106=CIRCLE('',#297,6.00000000000001);
#107=CIRCLE('',#302,3.00000000000001);
#108=CIRCLE('',#303,3.00000000000001);
#109=CIRCLE('',#305,9.5);
#110=CIRCLE('',#306,9.5);
#111=VERTEX_POINT('',#389);
#112=VERTEX_POINT('',#390);
#113=VERTEX_POINT('',#392);
#114=VERTEX_POINT('',#394);
#115=VERTEX_POINT('',#398);
#116=VERTEX_POINT('',#400);
#117=VERTEX_POINT('',#404);
#118=VERTEX_POINT('',#406);
#119=VERTEX_POINT('',#410);
#120=VERTEX_POINT('',#412);
#121=VERTEX_POINT('',#416);
#122=VERTEX_POINT('',#418);
#123=VERTEX_POINT('',#422);
#124=VERTEX_POINT('',#424);
#125=VERTEX_POINT('',#428);
#126=VERTEX_POINT('',#430);
#127=VERTEX_POINT('',#434);
#128=VERTEX_POINT('',#436);
#129=VERTEX_POINT('',#440);
#130=VERTEX_POINT('',#442);
#131=VERTEX_POINT('',#446);
#132=VERTEX_POINT('',#448);
#133=VERTEX_POINT('',#452);
#134=VERTEX_POINT('',#454);
#135=EDGE_CURVE('',#111,#112,#99,.T.);
#136=EDGE_CURVE('',#113,#112,#51,.T.);
#137=EDGE_CURVE('',#113,#114,#100,.T.);
#138=EDGE_CURVE('',#114,#111,#52,.T.);
#139=EDGE_CURVE('',#112,#115,#53,.T.);
#140=EDGE_CURVE('',#116,#115,#54,.T.);
#141=EDGE_CURVE('',#116,#113,#55,.T.);
#142=EDGE_CURVE('',#115,#117,#56,.T.);
#143=EDGE_CURVE('',#118,#117,#57,.T.);
#144=EDGE_CURVE('',#118,#116,#58,.T.);
#145=EDGE_CURVE('',#117,#119,#59,.T.);
#146=EDGE_CURVE('',#120,#119,#60,.T.);
#147=EDGE_CURVE('',#120,#118,#61,.T.);
#148=EDGE_CURVE('',#119,#121,#101,.T.);
#149=EDGE_CURVE('',#122,#121,#62,.T.);
#150=EDGE_CURVE('',#122,#120,#102,.T.);
#151=EDGE_CURVE('',#121,#123,#103,.T.);
#152=EDGE_CURVE('',#124,#123,#63,.T.);
#153=EDGE_CURVE('',#124,#122,#104,.T.);
#154=EDGE_CURVE('',#123,#125,#105,.T.);
#155=EDGE_CURVE('',#126,#125,#64,.T.);
#156=EDGE_CURVE('',#126,#124,#106,.T.);
#157=EDGE_CURVE('',#125,#127,#65,.T.);
#158=EDGE_CURVE('',#128,#127,#66,.T.);
#159=EDGE_CURVE('',#128,#126,#67,.T.);
#160=EDGE_CURVE('',#127,#129,#68,.T.);
#161=EDGE_CURVE('',#130,#129,#69,.T.);
#162=EDGE_CURVE('',#130,#128,#70,.T.);
#163=EDGE_CURVE('',#129,#131,#71,.T.);
#164=EDGE_CURVE('',#132,#131,#72,.T.);
#165=EDGE_CURVE('',#132,#130,#73,.T.);
#166=EDGE_CURVE('',#131,#133,#107,.T.);
#167=EDGE_CURVE('',#134,#133,#74,.T.);
#168=EDGE_CURVE('',#134,#132,#108,.T.);
#169=EDGE_CURVE('',#133,#111,#109,.T.);
#170=EDGE_CURVE('',#114,#134,#110,.T.);
#171=ORIENTED_EDGE('',*,*,#135,.T.);
#172=ORIENTED_EDGE('',*,*,#136,.F.);
#173=ORIENTED_EDGE('',*,*,#137,.T.);
#174=ORIENTED_EDGE('',*,*,#138,.T.);
#175=ORIENTED_EDGE('',*,*,#139,.T.);
#176=ORIENTED_EDGE('',*,*,#140,.F.);
#177=ORIENTED_EDGE('',*,*,#141,.T.);
#178=ORIENTED_EDGE('',*,*,#136,.T.);
#179=ORIENTED_EDGE('',*,*,#142,.T.);
#180=ORIENTED_EDGE('',*,*,#143,.F.);
#181=ORIENTED_EDGE('',*,*,#144,.T.);
#182=ORIENTED_EDGE('',*,*,#140,.T.);
#183=ORIENTED_EDGE('',*,*,#145,.T.);
#184=ORIENTED_EDGE('',*,*,#146,.F.);
#185=ORIENTED_EDGE('',*,*,#147,.T.);
#186=ORIENTED_EDGE('',*,*,#143,.T.);
#187=ORIENTED_EDGE('',*,*,#148,.T.);
#188=ORIENTED_EDGE('',*,*,#149,.F.);
#189=ORIENTED_EDGE('',*,*,#150,.T.);
#190=ORIENTED_EDGE('',*,*,#146,.T.);
#191=ORIENTED_EDGE('',*,*,#151,.T.);
#192=ORIENTED_EDGE('',*,*,#152,.F.);
#193=ORIENTED_EDGE('',*,*,#153,.T.);
#194=ORIENTED_EDGE('',*,*,#149,.T.);
#195=ORIENTED_EDGE('',*,*,#154,.T.);
#196=ORIENTED_EDGE('',*,*,#155,.F.);
#197=ORIENTED_EDGE('',*,*,#156,.T.);
#198=ORIENTED_EDGE('',*,*,#152,.T.);
#199=ORIENTED_EDGE('',*,*,#157,.T.);
#200=ORIENTED_EDGE('',*,*,#158,.F.);
#201=ORIENTED_EDGE('',*,*,#159,.T.);
#202=ORIENTED_EDGE('',*,*,#155,.T.);
#203=ORIENTED_EDGE('',*,*,#160,.T.);
#204=ORIENTED_EDGE('',*,*,#161,.F.);
#205=ORIENTED_EDGE('',*,*,#162,.T.);
#206=ORIENTED_EDGE('',*,*,#158,.T.);
#207=ORIENTED_EDGE('',*,*,#163,.T.);
#208=ORIENTED_EDGE('',*,*,#164,.F.);
#209=ORIENTED_EDGE('',*,*,#165,.T.);
#210=ORIENTED_EDGE('',*,*,#161,.T.);
#211=ORIENTED_EDGE('',*,*,#166,.T.);
#212=ORIENTED_EDGE('',*,*,#167,.F.);
#213=ORIENTED_EDGE('',*,*,#168,.T.);
#214=ORIENTED_EDGE('',*,*,#164,.T.);
#215=ORIENTED_EDGE('',*,*,#169,.T.);
#216=ORIENTED_EDGE('',*,*,#138,.F.);
#217=ORIENTED_EDGE('',*,*,#170,.T.);
#218=ORIENTED_EDGE('',*,*,#167,.T.);
#219=ORIENTED_EDGE('',*,*,#170,.F.);
#220=ORIENTED_EDGE('',*,*,#137,.F.);
#221=ORIENTED_EDGE('',*,*,#141,.F.);
#222=ORIENTED_EDGE('',*,*,#144,.F.);
#223=ORIENTED_EDGE('',*,*,#147,.F.);
#224=ORIENTED_EDGE('',*,*,#150,.F.);
#225=ORIENTED_EDGE('',*,*,#153,.F.);
#226=ORIENTED_EDGE('',*,*,#156,.F.);
#227=ORIENTED_EDGE('',*,*,#159,.F.);
#228=ORIENTED_EDGE('',*,*,#162,.F.);
#229=ORIENTED_EDGE('',*,*,#165,.F.);
#230=ORIENTED_EDGE('',*,*,#168,.F.);
#231=ORIENTED_EDGE('',*,*,#169,.F.);
#232=ORIENTED_EDGE('',*,*,#166,.F.);
#233=ORIENTED_EDGE('',*,*,#163,.F.);
#234=ORIENTED_EDGE('',*,*,#160,.F.);
#235=ORIENTED_EDGE('',*,*,#157,.F.);
#236=ORIENTED_EDGE('',*,*,#154,.F.);
#237=ORIENTED_EDGE('',*,*,#151,.F.);
#238=ORIENTED_EDGE('',*,*,#148,.F.);
#239=ORIENTED_EDGE('',*,*,#145,.F.);
#240=ORIENTED_EDGE('',*,*,#142,.F.);
#241=ORIENTED_EDGE('',*,*,#139,.F.);
#242=ORIENTED_EDGE('',*,*,#135,.F.);
#243=CYLINDRICAL_SURFACE('',#283,3.00000000000001);
#244=CYLINDRICAL_SURFACE('',#289,6.00000000000001);
#245=CYLINDRICAL_SURFACE('',#292,6.5);
#246=CYLINDRICAL_SURFACE('',#295,6.00000000000001);
#247=CYLINDRICAL_SURFACE('',#301,3.00000000000001);
#248=CYLINDRICAL_SURFACE('',#304,9.5);
#249=ADVANCED_FACE('',(#23),#243,.F.);
#250=ADVANCED_FACE('',(#24),#15,.T.);
#251=ADVANCED_FACE('',(#25),#16,.T.);
#252=ADVANCED_FACE('',(#26),#17,.T.);
#253=ADVANCED_FACE('',(#27),#244,.T.);
#254=ADVANCED_FACE('',(#28),#245,.F.);
#255=ADVANCED_FACE('',(#29),#246,.T.);
#256=ADVANCED_FACE('',(#30),#18,.T.);
#257=ADVANCED_FACE('',(#31),#19,.T.);
#258=ADVANCED_FACE('',(#32),#20,.T.);
#259=ADVANCED_FACE('',(#33),#247,.F.);
#260=ADVANCED_FACE('',(#34),#248,.T.);
#261=ADVANCED_FACE('',(#35),#21,.F.);
#262=ADVANCED_FACE('',(#36),#22,.T.);
#263=CLOSED_SHELL('',(#249,#250,#251,#252,#253,#254,#255,#256,#257,#258,
#259,#260,#261,#262));
#264=DERIVED_UNIT_ELEMENT(#266,1.);
#265=DERIVED_UNIT_ELEMENT(#467,3.);
#266=(
MASS_UNIT()
NAMED_UNIT(*)
SI_UNIT($,.GRAM.)
);
#267=DERIVED_UNIT((#264,#265));
#268=MEASURE_REPRESENTATION_ITEM('density measure',
POSITIVE_RATIO_MEASURE(7.86),#267);
#269=PROPERTY_DEFINITION_REPRESENTATION(#274,#271);
#270=PROPERTY_DEFINITION_REPRESENTATION(#275,#272);
#271=REPRESENTATION('material name',(#273),#464);
#272=REPRESENTATION('density',(#268),#464);
#273=DESCRIPTIVE_REPRESENTATION_ITEM('Acier doux','Acier doux');
#274=PROPERTY_DEFINITION('material property','material name',#474);
#275=PROPERTY_DEFINITION('material property','density of part',#474);
#276=DATE_TIME_ROLE('creation_date');
#277=APPLIED_DATE_AND_TIME_ASSIGNMENT(#278,#276,(#474));
#278=DATE_AND_TIME(#279,#280);
#279=CALENDAR_DATE(2006,4,5);
#280=LOCAL_TIME(9,37,19.,#281);
#281=COORDINATED_UNIVERSAL_TIME_OFFSET(0,0,.BEHIND.);
#282=AXIS2_PLACEMENT_3D('placement',#387,#309,#310);
#283=AXIS2_PLACEMENT_3D('',#388,#311,#312);
#284=AXIS2_PLACEMENT_3D('',#391,#313,#314);
#285=AXIS2_PLACEMENT_3D('',#395,#316,#317);
#286=AXIS2_PLACEMENT_3D('',#397,#319,#320);
#287=AXIS2_PLACEMENT_3D('',#403,#324,#325);
#288=AXIS2_PLACEMENT_3D('',#409,#329,#330);
#289=AXIS2_PLACEMENT_3D('',#415,#334,#335);
#290=AXIS2_PLACEMENT_3D('',#417,#336,#337);
#291=AXIS2_PLACEMENT_3D('',#420,#339,#340);
#292=AXIS2_PLACEMENT_3D('',#421,#341,#342);
#293=AXIS2_PLACEMENT_3D('',#423,#343,#344);
#294=AXIS2_PLACEMENT_3D('',#426,#346,#347);
#295=AXIS2_PLACEMENT_3D('',#427,#348,#349);
#296=AXIS2_PLACEMENT_3D('',#429,#350,#351);
#297=AXIS2_PLACEMENT_3D('',#432,#353,#354);
#298=AXIS2_PLACEMENT_3D('',#433,#355,#356);
#299=AXIS2_PLACEMENT_3D('',#439,#360,#361);
#300=AXIS2_PLACEMENT_3D('',#445,#365,#366);
#301=AXIS2_PLACEMENT_3D('',#451,#370,#371);
#302=AXIS2_PLACEMENT_3D('',#453,#372,#373);
#303=AXIS2_PLACEMENT_3D('',#456,#375,#376);
#304=AXIS2_PLACEMENT_3D('',#457,#377,#378);
#305=AXIS2_PLACEMENT_3D('',#458,#379,#380);
#306=AXIS2_PLACEMENT_3D('',#459,#381,#382);
#307=AXIS2_PLACEMENT_3D('',#460,#383,#384);
#308=AXIS2_PLACEMENT_3D('',#461,#385,#386);
#309=DIRECTION('axis',(0.,0.,1.));
#310=DIRECTION('refdir',(1.,0.,0.));
#311=DIRECTION('center_axis',(0.,0.,1.));
#312=DIRECTION('ref_axis',(0.88,-0.474973683481517,0.));
#313=DIRECTION('center_axis',(0.,0.,1.));
#314=DIRECTION('ref_axis',(0.88,-0.474973683481517,0.));
#315=DIRECTION('',(0.,0.,1.));
#316=DIRECTION('center_axis',(0.,0.,-1.));
#317=DIRECTION('ref_axis',(0.88,-0.474973683481517,0.));
#318=DIRECTION('',(0.,0.,1.));
#319=DIRECTION('center_axis',(0.866025403784439,0.5,0.));
#320=DIRECTION('ref_axis',(0.,0.,-1.));
#321=DIRECTION('',(0.5,-0.866025403784439,0.));
#322=DIRECTION('',(0.,0.,1.));
#323=DIRECTION('',(-0.5,0.866025403784439,0.));
#324=DIRECTION('center_axis',(0.500000000000002,-0.866025403784438,0.));
#325=DIRECTION('ref_axis',(0.,0.,-1.));
#326=DIRECTION('',(-0.866025403784438,-0.500000000000002,0.));
#327=DIRECTION('',(0.,0.,1.));
#328=DIRECTION('',(0.866025403784438,0.500000000000002,0.));
#329=DIRECTION('center_axis',(-0.866025403784439,-0.5,0.));
#330=DIRECTION('ref_axis',(0.,0.,1.));
#331=DIRECTION('',(-0.5,0.866025403784439,0.));
#332=DIRECTION('',(0.,0.,1.));
#333=DIRECTION('',(0.5,-0.866025403784439,0.));
#334=DIRECTION('center_axis',(0.,0.,1.));
#335=DIRECTION('ref_axis',(-0.88,0.474973683481517,0.));
#336=DIRECTION('center_axis',(0.,0.,-1.));
#337=DIRECTION('ref_axis',(-0.88,0.474973683481517,0.));
#338=DIRECTION('',(0.,0.,1.));
#339=DIRECTION('center_axis',(0.,0.,1.));
#340=DIRECTION('ref_axis',(-0.88,0.474973683481517,0.));
#341=DIRECTION('center_axis',(0.,0.,1.));
#342=DIRECTION('ref_axis',(1.83694997605854E-16,1.,0.));
#343=DIRECTION('center_axis',(0.,0.,1.));
#344=DIRECTION('ref_axis',(-6.12303176911189E-17,-1.,0.));
#345=DIRECTION('',(0.,0.,1.));
#346=DIRECTION('center_axis',(0.,0.,-1.));
#347=DIRECTION('ref_axis',(-6.12303176911189E-17,-1.,0.));
#348=DIRECTION('center_axis',(0.,0.,1.));
#349=DIRECTION('ref_axis',(0.866025403784439,-0.5,0.));
#350=DIRECTION('center_axis',(0.,0.,-1.));
#351=DIRECTION('ref_axis',(0.866025403784439,-0.5,0.));
#352=DIRECTION('',(0.,0.,1.));
#353=DIRECTION('center_axis',(0.,0.,1.));
#354=DIRECTION('ref_axis',(0.866025403784439,-0.5,0.));
#355=DIRECTION('center_axis',(0.866025403784439,-0.5,0.));
#356=DIRECTION('ref_axis',(0.,0.,-1.));
#357=DIRECTION('',(-0.5,-0.866025403784439,0.));
#358=DIRECTION('',(0.,0.,1.));
#359=DIRECTION('',(0.5,0.866025403784439,0.));
#360=DIRECTION('center_axis',(-0.500000000000002,-0.866025403784438,0.));
#361=DIRECTION('ref_axis',(0.,0.,1.));
#362=DIRECTION('',(-0.866025403784438,0.500000000000002,0.));
#363=DIRECTION('',(0.,0.,1.));
#364=DIRECTION('',(0.866025403784438,-0.500000000000002,0.));
#365=DIRECTION('center_axis',(-0.866025403784439,0.5,0.));
#366=DIRECTION('ref_axis',(0.,0.,1.));
#367=DIRECTION('',(0.5,0.866025403784439,0.));
#368=DIRECTION('',(0.,0.,1.));
#369=DIRECTION('',(-0.5,-0.866025403784439,0.));
#370=DIRECTION('center_axis',(0.,0.,1.));
#371=DIRECTION('ref_axis',(-0.866025403784439,0.5,0.));
#372=DIRECTION('center_axis',(0.,0.,1.));
#373=DIRECTION('ref_axis',(-0.866025403784439,0.5,0.));
#374=DIRECTION('',(0.,0.,1.));
#375=DIRECTION('center_axis',(0.,0.,-1.));
#376=DIRECTION('ref_axis',(-0.866025403784439,0.5,0.));
#377=DIRECTION('center_axis',(0.,0.,1.));
#378=DIRECTION('ref_axis',(6.12303176911189E-17,1.,0.));
#379=DIRECTION('center_axis',(0.,0.,-1.));
#380=DIRECTION('ref_axis',(0.88,-0.474973683481517,0.));
#381=DIRECTION('center_axis',(0.,0.,1.));
#382=DIRECTION('ref_axis',(6.12303176911189E-17,1.,0.));
#383=DIRECTION('center_axis',(0.,0.,1.));
#384=DIRECTION('ref_axis',(1.,0.,0.));
#385=DIRECTION('center_axis',(0.,0.,1.));
#386=DIRECTION('ref_axis',(1.,0.,0.));
#387=CARTESIAN_POINT('',(0.,0.,0.));
#388=CARTESIAN_POINT('Origin',(11.,-5.93717104351896,0.));
#389=CARTESIAN_POINT('',(8.36,-4.51224999307441,640.));
#390=CARTESIAN_POINT('',(8.40192378864668,-7.43717104351896,640.));
#391=CARTESIAN_POINT('Origin',(11.,-5.93717104351896,640.));
#392=CARTESIAN_POINT('',(8.40192378864668,-7.43717104351896,0.));
#393=CARTESIAN_POINT('',(8.40192378864668,-7.43717104351896,0.));
#394=CARTESIAN_POINT('',(8.36,-4.51224999307441,0.));
#395=CARTESIAN_POINT('Origin',(11.,-5.93717104351896,0.));
#396=CARTESIAN_POINT('',(8.36,-4.51224999307441,0.));
#397=CARTESIAN_POINT('Origin',(8.40192378864668,-7.43717104351896,0.));
#398=CARTESIAN_POINT('',(31.9248070542179,-48.18,640.));
#399=CARTESIAN_POINT('',(31.9248070542179,-48.18,640.));
#400=CARTESIAN_POINT('',(31.9248070542179,-48.18,0.));
#401=CARTESIAN_POINT('',(31.9248070542179,-48.18,0.));
#402=CARTESIAN_POINT('',(31.9248070542179,-48.18,0.));
#403=CARTESIAN_POINT('Origin',(31.9248070542179,-48.18,0.));
#404=CARTESIAN_POINT('',(29.3267308428646,-49.68,640.));
#405=CARTESIAN_POINT('',(29.3267308428646,-49.68,640.));
#406=CARTESIAN_POINT('',(29.3267308428646,-49.68,0.));
#407=CARTESIAN_POINT('',(29.3267308428646,-49.68,0.));
#408=CARTESIAN_POINT('',(29.3267308428646,-49.68,0.));
#409=CARTESIAN_POINT('Origin',(29.3267308428646,-49.68,0.));
#410=CARTESIAN_POINT('',(5.80384757729337,-8.93717104351896,640.));
#411=CARTESIAN_POINT('',(5.80384757729337,-8.93717104351896,640.));
#412=CARTESIAN_POINT('',(5.80384757729337,-8.93717104351896,0.));
#413=CARTESIAN_POINT('',(5.80384757729337,-8.93717104351896,0.));
#414=CARTESIAN_POINT('',(5.80384757729337,-8.93717104351896,0.));
#415=CARTESIAN_POINT('Origin',(11.,-5.93717104351896,0.));
#416=CARTESIAN_POINT('',(5.72,-3.08732894262986,640.));
#417=CARTESIAN_POINT('Origin',(11.,-5.93717104351896,640.));
#418=CARTESIAN_POINT('',(5.72,-3.08732894262986,0.));
#419=CARTESIAN_POINT('',(5.72,-3.08732894262986,0.));
#420=CARTESIAN_POINT('Origin',(11.,-5.93717104351896,0.));
#421=CARTESIAN_POINT('Origin',(0.,0.,0.));
#422=CARTESIAN_POINT('',(-5.72,-3.08732894262986,640.));
#423=CARTESIAN_POINT('Origin',(0.,0.,640.));
#424=CARTESIAN_POINT('',(-5.72,-3.08732894262986,0.));
#425=CARTESIAN_POINT('',(-5.72,-3.08732894262986,0.));
#426=CARTESIAN_POINT('Origin',(0.,0.,0.));
#427=CARTESIAN_POINT('Origin',(-11.,-5.93717104351896,0.));
#428=CARTESIAN_POINT('',(-5.80384757729337,-8.93717104351896,640.));
#429=CARTESIAN_POINT('Origin',(-11.,-5.93717104351896,640.));
#430=CARTESIAN_POINT('',(-5.80384757729337,-8.93717104351896,0.));
#431=CARTESIAN_POINT('',(-5.80384757729337,-8.93717104351896,0.));
#432=CARTESIAN_POINT('Origin',(-11.,-5.93717104351896,0.));
#433=CARTESIAN_POINT('Origin',(-5.80384757729337,-8.93717104351896,0.));
#434=CARTESIAN_POINT('',(-29.3267308428646,-49.68,640.));
#435=CARTESIAN_POINT('',(-29.3267308428646,-49.68,640.));
#436=CARTESIAN_POINT('',(-29.3267308428646,-49.68,0.));
#437=CARTESIAN_POINT('',(-29.3267308428646,-49.68,0.));
#438=CARTESIAN_POINT('',(-29.3267308428646,-49.68,0.));
#439=CARTESIAN_POINT('Origin',(-29.3267308428646,-49.68,0.));
#440=CARTESIAN_POINT('',(-31.9248070542179,-48.18,640.));
#441=CARTESIAN_POINT('',(-31.9248070542179,-48.18,640.));
#442=CARTESIAN_POINT('',(-31.9248070542179,-48.18,0.));
#443=CARTESIAN_POINT('',(-31.9248070542179,-48.18,0.));
#444=CARTESIAN_POINT('',(-31.9248070542179,-48.18,0.));
#445=CARTESIAN_POINT('Origin',(-31.9248070542179,-48.18,0.));
#446=CARTESIAN_POINT('',(-8.40192378864668,-7.43717104351896,640.));
#447=CARTESIAN_POINT('',(-8.40192378864669,-7.43717104351896,640.));
#448=CARTESIAN_POINT('',(-8.40192378864668,-7.43717104351896,0.));
#449=CARTESIAN_POINT('',(-8.40192378864668,-7.43717104351896,0.));
#450=CARTESIAN_POINT('',(-8.40192378864669,-7.43717104351896,0.));
#451=CARTESIAN_POINT('Origin',(-11.,-5.93717104351896,0.));
#452=CARTESIAN_POINT('',(-8.36,-4.51224999307441,640.));
#453=CARTESIAN_POINT('Origin',(-11.,-5.93717104351896,640.));
#454=CARTESIAN_POINT('',(-8.36,-4.51224999307441,0.));
#455=CARTESIAN_POINT('',(-8.36,-4.51224999307441,0.));
#456=CARTESIAN_POINT('Origin',(-11.,-5.93717104351896,0.));
#457=CARTESIAN_POINT('Origin',(0.,0.,0.));
#458=CARTESIAN_POINT('Origin',(0.,0.,640.));
#459=CARTESIAN_POINT('Origin',(0.,0.,0.));
#460=CARTESIAN_POINT('Origin',(-14.8421074306243,-19.3437153181634,0.));
#461=CARTESIAN_POINT('Origin',(-14.8421074306243,-19.3437153181634,640.));
#462=UNCERTAINTY_MEASURE_WITH_UNIT(LENGTH_MEASURE(0.01),#466,
'DISTANCE_ACCURACY_VALUE',
'Maximum model space distance between geometric entities at asserted c
onnectivities');
#463=UNCERTAINTY_MEASURE_WITH_UNIT(LENGTH_MEASURE(0.01),#466,
'DISTANCE_ACCURACY_VALUE',
'Maximum model space distance between geometric entities at asserted c
onnectivities');
#464=(
GEOMETRIC_REPRESENTATION_CONTEXT(3)
GLOBAL_UNCERTAINTY_ASSIGNED_CONTEXT((#462))
GLOBAL_UNIT_ASSIGNED_CONTEXT((#466,#468,#469))
REPRESENTATION_CONTEXT('','3D')
);
#465=(
GEOMETRIC_REPRESENTATION_CONTEXT(3)
GLOBAL_UNCERTAINTY_ASSIGNED_CONTEXT((#463))
GLOBAL_UNIT_ASSIGNED_CONTEXT((#466,#468,#469))
REPRESENTATION_CONTEXT('','3D')
);
#466=(
LENGTH_UNIT()
NAMED_UNIT(*)
SI_UNIT(.MILLI.,.METRE.)
);
#467=(
LENGTH_UNIT()
NAMED_UNIT(*)
SI_UNIT(.CENTI.,.METRE.)
);
#468=(
NAMED_UNIT(*)
PLANE_ANGLE_UNIT()
SI_UNIT($,.RADIAN.)
);
#469=(
NAMED_UNIT(*)
SI_UNIT($,.STERADIAN.)
SOLID_ANGLE_UNIT()
);
#470=SHAPE_DEFINITION_REPRESENTATION(#471,#472);
#471=PRODUCT_DEFINITION_SHAPE('',$,#474);
#472=SHAPE_REPRESENTATION('',(#282),#464);
#473=PRODUCT_DEFINITION_CONTEXT('part definition',#478,'design');
#474=PRODUCT_DEFINITION('20021RS-3','20021RS-3',#475,#473);
#475=PRODUCT_DEFINITION_FORMATION('',$,#480);
#476=PRODUCT_RELATED_PRODUCT_CATEGORY('20021RS-3','20021RS-3',(#480));
#477=APPLICATION_PROTOCOL_DEFINITION('international standard',
'automotive_design',2009,#478);
#478=APPLICATION_CONTEXT(
'Core Data for Automotive Mechanical Design Process');
#479=PRODUCT_CONTEXT('part definition',#478,'mechanical');
#480=PRODUCT('20021RS-3','20021RS-3',$,(#479));
#481=PRESENTATION_STYLE_ASSIGNMENT((#482));
#482=SURFACE_STYLE_USAGE(.BOTH.,#485);
#483=SURFACE_STYLE_RENDERING_WITH_PROPERTIES($,#489,(#484));
#484=SURFACE_STYLE_TRANSPARENT(0.);
#485=SURFACE_SIDE_STYLE('',(#486,#483));
#486=SURFACE_STYLE_FILL_AREA(#487);
#487=FILL_AREA_STYLE('',(#488));
#488=FILL_AREA_STYLE_COLOUR('',#489);
#489=COLOUR_RGB('',0.949019607843137,0.925490196078431,0.933333333333333);
ENDSEC;
END-ISO-10303-21;
