ISO-10303-21;
HEADER;
/* Generated by software containing ST-Developer
 * from STEP Tools, Inc. (www.steptools.com) 
 */

FILE_DESCRIPTION(
/* description */ (''),
/* implementation_level */ '2;1');

FILE_NAME(
/* name */ 'R:\\BE\\Transfert-temporaire\\20696.stp',
/* time_stamp */ '2019-08-19T15:45:16+02:00',
/* author */ ('Lionel'),
/* organization */ (''),
/* preprocessor_version */ 'ST-DEVELOPER v17.2',
/* originating_system */ 'Autodesk Inventor 2019',
/* authorisation */ '');

FILE_SCHEMA (('AUTOMOTIVE_DESIGN { 1 0 10303 214 3 1 1 }'));
ENDSEC;

DATA;
#10=MECHANICAL_DESIGN_GEOMETRIC_PRESENTATION_REPRESENTATION('',(#13),#232);
#11=SHAPE_REPRESENTATION_RELATIONSHIP('SRR','None',#239,#12);
#12=ADVANCED_BREP_SHAPE_REPRESENTATION('',(#14),#231);
#13=STYLED_ITEM('',(#248),#14);
#14=MANIFOLD_SOLID_BREP('Solide1',#120);
#15=CONICAL_SURFACE('',#149,6.,0.785398163397448);
#16=CONICAL_SURFACE('',#154,6.,0.78539816339745);
#17=FACE_BOUND('',#34,.T.);
#18=FACE_BOUND('',#36,.T.);
#19=PLANE('',#143);
#20=PLANE('',#145);
#21=PLANE('',#153);
#22=PLANE('',#156);
#23=FACE_OUTER_BOUND('',#32,.T.);
#24=FACE_OUTER_BOUND('',#33,.T.);
#25=FACE_OUTER_BOUND('',#35,.T.);
#26=FACE_OUTER_BOUND('',#37,.T.);
#27=FACE_OUTER_BOUND('',#38,.T.);
#28=FACE_OUTER_BOUND('',#39,.T.);
#29=FACE_OUTER_BOUND('',#40,.T.);
#30=FACE_OUTER_BOUND('',#41,.T.);
#31=FACE_OUTER_BOUND('',#42,.T.);
#32=EDGE_LOOP('',(#82,#83,#84,#85));
#33=EDGE_LOOP('',(#86));
#34=EDGE_LOOP('',(#87));
#35=EDGE_LOOP('',(#88));
#36=EDGE_LOOP('',(#89));
#37=EDGE_LOOP('',(#90,#91,#92,#93));
#38=EDGE_LOOP('',(#94,#95,#96,#97));
#39=EDGE_LOOP('',(#98,#99,#100,#101));
#40=EDGE_LOOP('',(#102));
#41=EDGE_LOOP('',(#103,#104,#105,#106));
#42=EDGE_LOOP('',(#107));
#43=LINE('',#203,#48);
#44=LINE('',#213,#49);
#45=LINE('',#218,#50);
#46=LINE('',#222,#51);
#47=LINE('',#226,#52);
#48=VECTOR('',#163,6.65);
#49=VECTOR('',#176,6.5);
#50=VECTOR('',#183,6.);
#51=VECTOR('',#188,6.5);
#52=VECTOR('',#193,6.);
#53=CIRCLE('',#141,6.65);
#54=CIRCLE('',#142,6.65);
#55=CIRCLE('',#144,6.5);
#56=CIRCLE('',#146,6.5);
#57=CIRCLE('',#148,6.5);
#58=CIRCLE('',#150,5.5);
#59=CIRCLE('',#152,6.5);
#60=CIRCLE('',#155,5.5);
#61=VERTEX_POINT('',#200);
#62=VERTEX_POINT('',#202);
#63=VERTEX_POINT('',#206);
#64=VERTEX_POINT('',#209);
#65=VERTEX_POINT('',#212);
#66=VERTEX_POINT('',#216);
#67=VERTEX_POINT('',#220);
#68=VERTEX_POINT('',#225);
#69=EDGE_CURVE('',#61,#61,#53,.T.);
#70=EDGE_CURVE('',#61,#62,#43,.T.);
#71=EDGE_CURVE('',#62,#62,#54,.T.);
#72=EDGE_CURVE('',#63,#63,#55,.T.);
#73=EDGE_CURVE('',#64,#64,#56,.T.);
#74=EDGE_CURVE('',#64,#65,#44,.T.);
#75=EDGE_CURVE('',#65,#65,#57,.T.);
#76=EDGE_CURVE('',#66,#66,#58,.T.);
#77=EDGE_CURVE('',#66,#65,#45,.T.);
#78=EDGE_CURVE('',#67,#67,#59,.T.);
#79=EDGE_CURVE('',#67,#63,#46,.T.);
#80=EDGE_CURVE('',#67,#68,#47,.T.);
#81=EDGE_CURVE('',#68,#68,#60,.T.);
#82=ORIENTED_EDGE('',*,*,#69,.T.);
#83=ORIENTED_EDGE('',*,*,#70,.T.);
#84=ORIENTED_EDGE('',*,*,#71,.T.);
#85=ORIENTED_EDGE('',*,*,#70,.F.);
#86=ORIENTED_EDGE('',*,*,#71,.F.);
#87=ORIENTED_EDGE('',*,*,#72,.F.);
#88=ORIENTED_EDGE('',*,*,#69,.F.);
#89=ORIENTED_EDGE('',*,*,#73,.F.);
#90=ORIENTED_EDGE('',*,*,#73,.T.);
#91=ORIENTED_EDGE('',*,*,#74,.T.);
#92=ORIENTED_EDGE('',*,*,#75,.F.);
#93=ORIENTED_EDGE('',*,*,#74,.F.);
#94=ORIENTED_EDGE('',*,*,#76,.T.);
#95=ORIENTED_EDGE('',*,*,#77,.T.);
#96=ORIENTED_EDGE('',*,*,#75,.T.);
#97=ORIENTED_EDGE('',*,*,#77,.F.);
#98=ORIENTED_EDGE('',*,*,#78,.F.);
#99=ORIENTED_EDGE('',*,*,#79,.T.);
#100=ORIENTED_EDGE('',*,*,#72,.T.);
#101=ORIENTED_EDGE('',*,*,#79,.F.);
#102=ORIENTED_EDGE('',*,*,#76,.F.);
#103=ORIENTED_EDGE('',*,*,#78,.T.);
#104=ORIENTED_EDGE('',*,*,#80,.T.);
#105=ORIENTED_EDGE('',*,*,#81,.T.);
#106=ORIENTED_EDGE('',*,*,#80,.F.);
#107=ORIENTED_EDGE('',*,*,#81,.F.);
#108=CYLINDRICAL_SURFACE('',#140,6.65);
#109=CYLINDRICAL_SURFACE('',#147,6.5);
#110=CYLINDRICAL_SURFACE('',#151,6.5);
#111=ADVANCED_FACE('',(#23),#108,.T.);
#112=ADVANCED_FACE('',(#24,#17),#19,.F.);
#113=ADVANCED_FACE('',(#25,#18),#20,.T.);
#114=ADVANCED_FACE('',(#26),#109,.T.);
#115=ADVANCED_FACE('',(#27),#15,.T.);
#116=ADVANCED_FACE('',(#28),#110,.T.);
#117=ADVANCED_FACE('',(#29),#21,.T.);
#118=ADVANCED_FACE('',(#30),#16,.T.);
#119=ADVANCED_FACE('',(#31),#22,.F.);
#120=CLOSED_SHELL('',(#111,#112,#113,#114,#115,#116,#117,#118,#119));
#121=DERIVED_UNIT_ELEMENT(#123,1.);
#122=DERIVED_UNIT_ELEMENT(#234,3.);
#123=(
MASS_UNIT()
NAMED_UNIT(*)
SI_UNIT($,.GRAM.)
);
#124=DERIVED_UNIT((#121,#122));
#125=MEASURE_REPRESENTATION_ITEM('density measure',
POSITIVE_RATIO_MEASURE(1.),#124);
#126=PROPERTY_DEFINITION_REPRESENTATION(#131,#128);
#127=PROPERTY_DEFINITION_REPRESENTATION(#132,#129);
#128=REPRESENTATION('material name',(#130),#231);
#129=REPRESENTATION('density',(#125),#231);
#130=DESCRIPTIVE_REPRESENTATION_ITEM('G\X\E9n\X\E9rique','G\X\E9n\X\E9
rique');
#131=PROPERTY_DEFINITION('material property','material name',#241);
#132=PROPERTY_DEFINITION('material property','density of part',#241);
#133=DATE_TIME_ROLE('creation_date');
#134=APPLIED_DATE_AND_TIME_ASSIGNMENT(#135,#133,(#241));
#135=DATE_AND_TIME(#136,#137);
#136=CALENDAR_DATE(2007,14,2);
#137=LOCAL_TIME(13,25,41.,#138);
#138=COORDINATED_UNIVERSAL_TIME_OFFSET(0,0,.BEHIND.);
#139=AXIS2_PLACEMENT_3D('placement',#198,#157,#158);
#140=AXIS2_PLACEMENT_3D('',#199,#159,#160);
#141=AXIS2_PLACEMENT_3D('',#201,#161,#162);
#142=AXIS2_PLACEMENT_3D('',#204,#164,#165);
#143=AXIS2_PLACEMENT_3D('',#205,#166,#167);
#144=AXIS2_PLACEMENT_3D('',#207,#168,#169);
#145=AXIS2_PLACEMENT_3D('',#208,#170,#171);
#146=AXIS2_PLACEMENT_3D('',#210,#172,#173);
#147=AXIS2_PLACEMENT_3D('',#211,#174,#175);
#148=AXIS2_PLACEMENT_3D('',#214,#177,#178);
#149=AXIS2_PLACEMENT_3D('',#215,#179,#180);
#150=AXIS2_PLACEMENT_3D('',#217,#181,#182);
#151=AXIS2_PLACEMENT_3D('',#219,#184,#185);
#152=AXIS2_PLACEMENT_3D('',#221,#186,#187);
#153=AXIS2_PLACEMENT_3D('',#223,#189,#190);
#154=AXIS2_PLACEMENT_3D('',#224,#191,#192);
#155=AXIS2_PLACEMENT_3D('',#227,#194,#195);
#156=AXIS2_PLACEMENT_3D('',#228,#196,#197);
#157=DIRECTION('axis',(0.,0.,1.));
#158=DIRECTION('refdir',(1.,0.,0.));
#159=DIRECTION('center_axis',(0.,0.,-1.));
#160=DIRECTION('ref_axis',(-1.,0.,0.));
#161=DIRECTION('center_axis',(0.,0.,1.));
#162=DIRECTION('ref_axis',(-1.,0.,0.));
#163=DIRECTION('',(0.,0.,1.));
#164=DIRECTION('center_axis',(0.,0.,-1.));
#165=DIRECTION('ref_axis',(-1.,0.,0.));
#166=DIRECTION('center_axis',(0.,0.,-1.));
#167=DIRECTION('ref_axis',(-1.,0.,0.));
#168=DIRECTION('center_axis',(0.,0.,1.));
#169=DIRECTION('ref_axis',(-1.,0.,0.));
#170=DIRECTION('center_axis',(0.,0.,-1.));
#171=DIRECTION('ref_axis',(-1.,0.,0.));
#172=DIRECTION('center_axis',(0.,0.,-1.));
#173=DIRECTION('ref_axis',(-1.,0.,0.));
#174=DIRECTION('center_axis',(0.,0.,1.));
#175=DIRECTION('ref_axis',(-1.,0.,0.));
#176=DIRECTION('',(0.,0.,-1.));
#177=DIRECTION('center_axis',(0.,0.,-1.));
#178=DIRECTION('ref_axis',(-1.,0.,0.));
#179=DIRECTION('center_axis',(0.,0.,1.));
#180=DIRECTION('ref_axis',(-1.,0.,0.));
#181=DIRECTION('center_axis',(0.,0.,1.));
#182=DIRECTION('ref_axis',(-1.,0.,0.));
#183=DIRECTION('',(0.707106781186547,-8.65956056235493E-17,0.707106781186548));
#184=DIRECTION('center_axis',(0.,0.,1.));
#185=DIRECTION('ref_axis',(-1.,0.,0.));
#186=DIRECTION('center_axis',(0.,0.,1.));
#187=DIRECTION('ref_axis',(-1.,0.,0.));
#188=DIRECTION('',(0.,0.,-1.));
#189=DIRECTION('center_axis',(0.,0.,-1.));
#190=DIRECTION('ref_axis',(-1.,0.,0.));
#191=DIRECTION('center_axis',(0.,0.,-1.));
#192=DIRECTION('ref_axis',(-1.,0.,0.));
#193=DIRECTION('',(-0.707106781186549,8.65956056235495E-17,0.707106781186546));
#194=DIRECTION('center_axis',(0.,0.,-1.));
#195=DIRECTION('ref_axis',(-1.,0.,0.));
#196=DIRECTION('center_axis',(0.,0.,-1.));
#197=DIRECTION('ref_axis',(-1.,0.,0.));
#198=CARTESIAN_POINT('',(0.,0.,0.));
#199=CARTESIAN_POINT('Origin',(0.,0.,90.));
#200=CARTESIAN_POINT('',(6.65,8.14363225291881E-16,60.));
#201=CARTESIAN_POINT('Origin',(0.,0.,60.));
#202=CARTESIAN_POINT('',(6.65,8.14363225291881E-16,90.));
#203=CARTESIAN_POINT('',(6.65,-8.1439012143299E-16,90.));
#204=CARTESIAN_POINT('Origin',(0.,0.,90.));
#205=CARTESIAN_POINT('Origin',(0.,0.,90.));
#206=CARTESIAN_POINT('',(6.5,7.95994129984545E-16,90.));
#207=CARTESIAN_POINT('Origin',(0.,0.,90.));
#208=CARTESIAN_POINT('Origin',(0.,0.,60.));
#209=CARTESIAN_POINT('',(6.5,7.95994129984545E-16,60.));
#210=CARTESIAN_POINT('Origin',(0.,0.,60.));
#211=CARTESIAN_POINT('Origin',(0.,0.,0.));
#212=CARTESIAN_POINT('',(6.5,-7.95994129984545E-16,1.));
#213=CARTESIAN_POINT('',(6.5,7.9602041944578E-16,0.));
#214=CARTESIAN_POINT('Origin',(0.,0.,1.));
#215=CARTESIAN_POINT('Origin',(0.,0.,0.5));
#216=CARTESIAN_POINT('',(5.5,6.73533494602307E-16,0.));
#217=CARTESIAN_POINT('Origin',(0.,0.,0.));
#218=CARTESIAN_POINT('',(6.,-7.34788079488412E-16,0.5));
#219=CARTESIAN_POINT('Origin',(0.,0.,0.));
#220=CARTESIAN_POINT('',(6.5,7.95994129984545E-16,99.));
#221=CARTESIAN_POINT('Origin',(0.,0.,99.));
#222=CARTESIAN_POINT('',(6.5,7.9602041944578E-16,0.));
#223=CARTESIAN_POINT('Origin',(0.,0.,0.));
#224=CARTESIAN_POINT('Origin',(0.,0.,99.5));
#225=CARTESIAN_POINT('',(5.5,-6.73533494602307E-16,100.));
#226=CARTESIAN_POINT('',(6.,-7.34788079488412E-16,99.5));
#227=CARTESIAN_POINT('Origin',(0.,0.,100.));
#228=CARTESIAN_POINT('Origin',(0.,0.,100.));
#229=UNCERTAINTY_MEASURE_WITH_UNIT(LENGTH_MEASURE(0.01),#233,
'DISTANCE_ACCURACY_VALUE',
'Maximum model space distance between geometric entities at asserted c
onnectivities');
#230=UNCERTAINTY_MEASURE_WITH_UNIT(LENGTH_MEASURE(0.01),#233,
'DISTANCE_ACCURACY_VALUE',
'Maximum model space distance between geometric entities at asserted c
onnectivities');
#231=(
GEOMETRIC_REPRESENTATION_CONTEXT(3)
GLOBAL_UNCERTAINTY_ASSIGNED_CONTEXT((#229))
GLOBAL_UNIT_ASSIGNED_CONTEXT((#233,#235,#236))
REPRESENTATION_CONTEXT('','3D')
);
#232=(
GEOMETRIC_REPRESENTATION_CONTEXT(3)
GLOBAL_UNCERTAINTY_ASSIGNED_CONTEXT((#230))
GLOBAL_UNIT_ASSIGNED_CONTEXT((#233,#235,#236))
REPRESENTATION_CONTEXT('','3D')
);
#233=(
LENGTH_UNIT()
NAMED_UNIT(*)
SI_UNIT(.MILLI.,.METRE.)
);
#234=(
LENGTH_UNIT()
NAMED_UNIT(*)
SI_UNIT(.CENTI.,.METRE.)
);
#235=(
NAMED_UNIT(*)
PLANE_ANGLE_UNIT()
SI_UNIT($,.RADIAN.)
);
#236=(
NAMED_UNIT(*)
SI_UNIT($,.STERADIAN.)
SOLID_ANGLE_UNIT()
);
#237=SHAPE_DEFINITION_REPRESENTATION(#238,#239);
#238=PRODUCT_DEFINITION_SHAPE('',$,#241);
#239=SHAPE_REPRESENTATION('',(#139),#231);
#240=PRODUCT_DEFINITION_CONTEXT('part definition',#245,'design');
#241=PRODUCT_DEFINITION('20696','20696',#242,#240);
#242=PRODUCT_DEFINITION_FORMATION('',$,#247);
#243=PRODUCT_RELATED_PRODUCT_CATEGORY('20696','20696',(#247));
#244=APPLICATION_PROTOCOL_DEFINITION('international standard',
'automotive_design',2009,#245);
#245=APPLICATION_CONTEXT(
'Core Data for Automotive Mechanical Design Process');
#246=PRODUCT_CONTEXT('part definition',#245,'mechanical');
#247=PRODUCT('20696','20696',$,(#246));
#248=PRESENTATION_STYLE_ASSIGNMENT((#249));
#249=SURFACE_STYLE_USAGE(.BOTH.,#252);
#250=SURFACE_STYLE_RENDERING_WITH_PROPERTIES($,#256,(#251));
#251=SURFACE_STYLE_TRANSPARENT(0.);
#252=SURFACE_SIDE_STYLE('',(#253,#250));
#253=SURFACE_STYLE_FILL_AREA(#254);
#254=FILL_AREA_STYLE('',(#255));
#255=FILL_AREA_STYLE_COLOUR('',#256);
#256=COLOUR_RGB('',0.749019607843137,0.749019607843137,0.749019607843137);
ENDSEC;
END-ISO-10303-21;
