ISO-10303-21;
HEADER;
/* Generated by software containing ST-Developer
 * from STEP Tools, Inc. (www.steptools.com) 
 */

FILE_DESCRIPTION(
/* description */ (''),
/* implementation_level */ '2;1');

FILE_NAME(
/* name */ 'R:\\BE\\Transfert-temporaire\\23768.stp',
/* time_stamp */ '2019-08-19T15:00:24+02:00',
/* author */ ('ANTHONY'),
/* organization */ (''),
/* preprocessor_version */ 'ST-DEVELOPER v17.2',
/* originating_system */ 'Autodesk Inventor 2019',
/* authorisation */ '');

FILE_SCHEMA (('AUTOMOTIVE_DESIGN { 1 0 10303 214 3 1 1 }'));
ENDSEC;

DATA;
#10=MECHANICAL_DESIGN_GEOMETRIC_PRESENTATION_REPRESENTATION('',(#13),#292);
#11=SHAPE_REPRESENTATION_RELATIONSHIP('SRR','None',#299,#12);
#12=ADVANCED_BREP_SHAPE_REPRESENTATION('',(#14),#291);
#13=STYLED_ITEM('',(#308),#14);
#14=MANIFOLD_SOLID_BREP('Solide1',#150);
#15=FACE_BOUND('',#40,.T.);
#16=FACE_BOUND('',#43,.T.);
#17=PLANE('',#177);
#18=PLANE('',#182);
#19=PLANE('',#186);
#20=PLANE('',#192);
#21=CYLINDRICAL_SURFACE('',#174,5.75000000000001);
#22=CYLINDRICAL_SURFACE('',#183,5.75);
#23=CYLINDRICAL_SURFACE('',#189,6.05000000000001);
#24=FACE_OUTER_BOUND('',#33,.T.);
#25=FACE_OUTER_BOUND('',#34,.T.);
#26=FACE_OUTER_BOUND('',#35,.T.);
#27=FACE_OUTER_BOUND('',#36,.T.);
#28=FACE_OUTER_BOUND('',#37,.T.);
#29=FACE_OUTER_BOUND('',#38,.T.);
#30=FACE_OUTER_BOUND('',#39,.T.);
#31=FACE_OUTER_BOUND('',#41,.T.);
#32=FACE_OUTER_BOUND('',#42,.T.);
#33=EDGE_LOOP('',(#101,#102,#103,#104,#105));
#34=EDGE_LOOP('',(#106,#107,#108,#109,#110,#111));
#35=EDGE_LOOP('',(#112));
#36=EDGE_LOOP('',(#113,#114,#115,#116,#117));
#37=EDGE_LOOP('',(#118));
#38=EDGE_LOOP('',(#119,#120,#121,#122,#123,#124));
#39=EDGE_LOOP('',(#125,#126));
#40=EDGE_LOOP('',(#127,#128));
#41=EDGE_LOOP('',(#129,#130,#131,#132,#133,#134));
#42=EDGE_LOOP('',(#135,#136));
#43=EDGE_LOOP('',(#137,#138));
#44=LINE('',#251,#49);
#45=LINE('',#257,#50);
#46=LINE('',#268,#51);
#47=LINE('',#276,#52);
#48=LINE('',#287,#53);
#49=VECTOR('',#199,5.25000000000001);
#50=VECTOR('',#206,5.75000000000001);
#51=VECTOR('',#219,5.25);
#52=VECTOR('',#230,5.75);
#53=VECTOR('',#243,6.05000000000001);
#54=CIRCLE('',#171,4.75);
#55=CIRCLE('',#172,5.75000000000001);
#56=CIRCLE('',#173,5.75000000000001);
#57=CIRCLE('',#175,5.75000000000002);
#58=CIRCLE('',#176,5.75000000000002);
#59=CIRCLE('',#179,5.75);
#60=CIRCLE('',#180,5.75);
#61=CIRCLE('',#181,4.75);
#62=CIRCLE('',#184,5.75);
#63=CIRCLE('',#185,5.75);
#64=CIRCLE('',#187,6.05000000000001);
#65=CIRCLE('',#188,6.05000000000001);
#66=CIRCLE('',#190,6.05000000000001);
#67=CIRCLE('',#191,6.05000000000001);
#68=VERTEX_POINT('',#248);
#69=VERTEX_POINT('',#250);
#70=VERTEX_POINT('',#252);
#71=VERTEX_POINT('',#256);
#72=VERTEX_POINT('',#258);
#73=VERTEX_POINT('',#263);
#74=VERTEX_POINT('',#264);
#75=VERTEX_POINT('',#267);
#76=VERTEX_POINT('',#272);
#77=VERTEX_POINT('',#273);
#78=VERTEX_POINT('',#278);
#79=VERTEX_POINT('',#279);
#80=VERTEX_POINT('',#283);
#81=VERTEX_POINT('',#284);
#82=EDGE_CURVE('',#68,#68,#54,.T.);
#83=EDGE_CURVE('',#68,#69,#44,.T.);
#84=EDGE_CURVE('',#69,#70,#55,.T.);
#85=EDGE_CURVE('',#70,#69,#56,.T.);
#86=EDGE_CURVE('',#70,#71,#45,.T.);
#87=EDGE_CURVE('',#71,#72,#57,.T.);
#88=EDGE_CURVE('',#72,#71,#58,.T.);
#89=EDGE_CURVE('',#73,#74,#59,.T.);
#90=EDGE_CURVE('',#74,#73,#60,.T.);
#91=EDGE_CURVE('',#73,#75,#46,.T.);
#92=EDGE_CURVE('',#75,#75,#61,.T.);
#93=EDGE_CURVE('',#76,#77,#62,.T.);
#94=EDGE_CURVE('',#77,#76,#63,.T.);
#95=EDGE_CURVE('',#77,#74,#47,.T.);
#96=EDGE_CURVE('',#78,#79,#64,.T.);
#97=EDGE_CURVE('',#79,#78,#65,.T.);
#98=EDGE_CURVE('',#80,#81,#66,.T.);
#99=EDGE_CURVE('',#81,#80,#67,.T.);
#100=EDGE_CURVE('',#81,#79,#48,.T.);
#101=ORIENTED_EDGE('',*,*,#82,.T.);
#102=ORIENTED_EDGE('',*,*,#83,.T.);
#103=ORIENTED_EDGE('',*,*,#84,.T.);
#104=ORIENTED_EDGE('',*,*,#85,.T.);
#105=ORIENTED_EDGE('',*,*,#83,.F.);
#106=ORIENTED_EDGE('',*,*,#84,.F.);
#107=ORIENTED_EDGE('',*,*,#85,.F.);
#108=ORIENTED_EDGE('',*,*,#86,.T.);
#109=ORIENTED_EDGE('',*,*,#87,.T.);
#110=ORIENTED_EDGE('',*,*,#88,.T.);
#111=ORIENTED_EDGE('',*,*,#86,.F.);
#112=ORIENTED_EDGE('',*,*,#82,.F.);
#113=ORIENTED_EDGE('',*,*,#89,.T.);
#114=ORIENTED_EDGE('',*,*,#90,.T.);
#115=ORIENTED_EDGE('',*,*,#91,.T.);
#116=ORIENTED_EDGE('',*,*,#92,.T.);
#117=ORIENTED_EDGE('',*,*,#91,.F.);
#118=ORIENTED_EDGE('',*,*,#92,.F.);
#119=ORIENTED_EDGE('',*,*,#93,.F.);
#120=ORIENTED_EDGE('',*,*,#94,.F.);
#121=ORIENTED_EDGE('',*,*,#95,.T.);
#122=ORIENTED_EDGE('',*,*,#89,.F.);
#123=ORIENTED_EDGE('',*,*,#90,.F.);
#124=ORIENTED_EDGE('',*,*,#95,.F.);
#125=ORIENTED_EDGE('',*,*,#96,.F.);
#126=ORIENTED_EDGE('',*,*,#97,.F.);
#127=ORIENTED_EDGE('',*,*,#93,.T.);
#128=ORIENTED_EDGE('',*,*,#94,.T.);
#129=ORIENTED_EDGE('',*,*,#98,.F.);
#130=ORIENTED_EDGE('',*,*,#99,.F.);
#131=ORIENTED_EDGE('',*,*,#100,.T.);
#132=ORIENTED_EDGE('',*,*,#97,.T.);
#133=ORIENTED_EDGE('',*,*,#96,.T.);
#134=ORIENTED_EDGE('',*,*,#100,.F.);
#135=ORIENTED_EDGE('',*,*,#98,.T.);
#136=ORIENTED_EDGE('',*,*,#99,.T.);
#137=ORIENTED_EDGE('',*,*,#88,.F.);
#138=ORIENTED_EDGE('',*,*,#87,.F.);
#139=CONICAL_SURFACE('',#170,5.25,0.785398163397454);
#140=CONICAL_SURFACE('',#178,5.25,0.785398163397449);
#141=ADVANCED_FACE('',(#24),#139,.T.);
#142=ADVANCED_FACE('',(#25),#21,.T.);
#143=ADVANCED_FACE('',(#26),#17,.T.);
#144=ADVANCED_FACE('',(#27),#140,.T.);
#145=ADVANCED_FACE('',(#28),#18,.T.);
#146=ADVANCED_FACE('',(#29),#22,.T.);
#147=ADVANCED_FACE('',(#30,#15),#19,.T.);
#148=ADVANCED_FACE('',(#31),#23,.T.);
#149=ADVANCED_FACE('',(#32,#16),#20,.T.);
#150=CLOSED_SHELL('',(#141,#142,#143,#144,#145,#146,#147,#148,#149));
#151=DERIVED_UNIT_ELEMENT(#153,1.);
#152=DERIVED_UNIT_ELEMENT(#294,3.);
#153=(
MASS_UNIT()
NAMED_UNIT(*)
SI_UNIT($,.GRAM.)
);
#154=DERIVED_UNIT((#151,#152));
#155=MEASURE_REPRESENTATION_ITEM('density measure',
POSITIVE_RATIO_MEASURE(7.85),#154);
#156=PROPERTY_DEFINITION_REPRESENTATION(#161,#158);
#157=PROPERTY_DEFINITION_REPRESENTATION(#162,#159);
#158=REPRESENTATION('material name',(#160),#291);
#159=REPRESENTATION('density',(#155),#291);
#160=DESCRIPTIVE_REPRESENTATION_ITEM('Acier, doux','Acier, doux');
#161=PROPERTY_DEFINITION('material property','material name',#301);
#162=PROPERTY_DEFINITION('material property','density of part',#301);
#163=DATE_TIME_ROLE('creation_date');
#164=APPLIED_DATE_AND_TIME_ASSIGNMENT(#165,#163,(#301));
#165=DATE_AND_TIME(#166,#167);
#166=CALENDAR_DATE(2015,19,8);
#167=LOCAL_TIME(14,26,11.,#168);
#168=COORDINATED_UNIVERSAL_TIME_OFFSET(0,0,.BEHIND.);
#169=AXIS2_PLACEMENT_3D('placement',#246,#193,#194);
#170=AXIS2_PLACEMENT_3D('',#247,#195,#196);
#171=AXIS2_PLACEMENT_3D('',#249,#197,#198);
#172=AXIS2_PLACEMENT_3D('',#253,#200,#201);
#173=AXIS2_PLACEMENT_3D('',#254,#202,#203);
#174=AXIS2_PLACEMENT_3D('',#255,#204,#205);
#175=AXIS2_PLACEMENT_3D('',#259,#207,#208);
#176=AXIS2_PLACEMENT_3D('',#260,#209,#210);
#177=AXIS2_PLACEMENT_3D('',#261,#211,#212);
#178=AXIS2_PLACEMENT_3D('',#262,#213,#214);
#179=AXIS2_PLACEMENT_3D('',#265,#215,#216);
#180=AXIS2_PLACEMENT_3D('',#266,#217,#218);
#181=AXIS2_PLACEMENT_3D('',#269,#220,#221);
#182=AXIS2_PLACEMENT_3D('',#270,#222,#223);
#183=AXIS2_PLACEMENT_3D('',#271,#224,#225);
#184=AXIS2_PLACEMENT_3D('',#274,#226,#227);
#185=AXIS2_PLACEMENT_3D('',#275,#228,#229);
#186=AXIS2_PLACEMENT_3D('',#277,#231,#232);
#187=AXIS2_PLACEMENT_3D('',#280,#233,#234);
#188=AXIS2_PLACEMENT_3D('',#281,#235,#236);
#189=AXIS2_PLACEMENT_3D('',#282,#237,#238);
#190=AXIS2_PLACEMENT_3D('',#285,#239,#240);
#191=AXIS2_PLACEMENT_3D('',#286,#241,#242);
#192=AXIS2_PLACEMENT_3D('',#288,#244,#245);
#193=DIRECTION('axis',(0.,0.,1.));
#194=DIRECTION('refdir',(1.,0.,0.));
#195=DIRECTION('center_axis',(-1.,0.,0.));
#196=DIRECTION('ref_axis',(0.,-1.,0.));
#197=DIRECTION('center_axis',(-1.,0.,0.));
#198=DIRECTION('ref_axis',(0.,-1.,0.));
#199=DIRECTION('',(-0.707106781186544,0.707106781186551,8.65956056235498E-17));
#200=DIRECTION('center_axis',(1.,0.,0.));
#201=DIRECTION('ref_axis',(0.,-1.,0.));
#202=DIRECTION('center_axis',(1.,0.,0.));
#203=DIRECTION('ref_axis',(0.,-1.,0.));
#204=DIRECTION('center_axis',(1.,0.,0.));
#205=DIRECTION('ref_axis',(0.,1.,0.));
#206=DIRECTION('',(-1.,0.,0.));
#207=DIRECTION('center_axis',(1.,0.,0.));
#208=DIRECTION('ref_axis',(0.,0.,-1.));
#209=DIRECTION('center_axis',(1.,0.,0.));
#210=DIRECTION('ref_axis',(0.,0.,-1.));
#211=DIRECTION('center_axis',(1.,0.,0.));
#212=DIRECTION('ref_axis',(0.,0.,-1.));
#213=DIRECTION('center_axis',(1.,0.,0.));
#214=DIRECTION('ref_axis',(0.,-1.,0.));
#215=DIRECTION('center_axis',(-1.,0.,0.));
#216=DIRECTION('ref_axis',(0.,-1.,0.));
#217=DIRECTION('center_axis',(-1.,0.,0.));
#218=DIRECTION('ref_axis',(0.,-1.,0.));
#219=DIRECTION('',(-0.707106781186547,-0.707106781186548,-8.65956056235494E-17));
#220=DIRECTION('center_axis',(1.,0.,0.));
#221=DIRECTION('ref_axis',(0.,-1.,0.));
#222=DIRECTION('center_axis',(-1.,0.,0.));
#223=DIRECTION('ref_axis',(0.,0.,1.));
#224=DIRECTION('center_axis',(1.,0.,0.));
#225=DIRECTION('ref_axis',(0.,1.,0.));
#226=DIRECTION('center_axis',(1.,0.,0.));
#227=DIRECTION('ref_axis',(0.,0.,-1.));
#228=DIRECTION('center_axis',(1.,0.,0.));
#229=DIRECTION('ref_axis',(0.,0.,-1.));
#230=DIRECTION('',(-1.,0.,0.));
#231=DIRECTION('center_axis',(-1.,0.,0.));
#232=DIRECTION('ref_axis',(0.,0.,1.));
#233=DIRECTION('center_axis',(1.,0.,0.));
#234=DIRECTION('ref_axis',(0.,0.,-1.));
#235=DIRECTION('center_axis',(1.,0.,0.));
#236=DIRECTION('ref_axis',(0.,0.,-1.));
#237=DIRECTION('center_axis',(1.,0.,0.));
#238=DIRECTION('ref_axis',(0.,1.,0.));
#239=DIRECTION('center_axis',(1.,0.,0.));
#240=DIRECTION('ref_axis',(0.,0.,-1.));
#241=DIRECTION('center_axis',(1.,0.,0.));
#242=DIRECTION('ref_axis',(0.,0.,-1.));
#243=DIRECTION('',(-1.,0.,0.));
#244=DIRECTION('center_axis',(1.,0.,0.));
#245=DIRECTION('ref_axis',(0.,0.,-1.));
#246=CARTESIAN_POINT('',(0.,0.,0.));
#247=CARTESIAN_POINT('Origin',(99.5,0.,0.));
#248=CARTESIAN_POINT('',(100.,4.75,-5.81707229594993E-16));
#249=CARTESIAN_POINT('Origin',(100.,0.,0.));
#250=CARTESIAN_POINT('',(99.,5.75000000000001,7.04171909509729E-16));
#251=CARTESIAN_POINT('',(99.5,5.25,6.42939569552361E-16));
#252=CARTESIAN_POINT('',(99.,-5.75000000000001,-7.04171909509729E-16));
#253=CARTESIAN_POINT('Origin',(99.,0.,0.));
#254=CARTESIAN_POINT('Origin',(99.,0.,0.));
#255=CARTESIAN_POINT('Origin',(70.,0.,0.));
#256=CARTESIAN_POINT('',(40.,-5.75000000000001,-7.04171909509729E-16));
#257=CARTESIAN_POINT('',(70.,-5.75000000000001,-7.04171909509729E-16));
#258=CARTESIAN_POINT('',(40.,5.75000000000002,0.));
#259=CARTESIAN_POINT('Origin',(40.,0.,0.));
#260=CARTESIAN_POINT('Origin',(40.,0.,0.));
#261=CARTESIAN_POINT('Origin',(100.,0.,0.));
#262=CARTESIAN_POINT('Origin',(0.5,0.,0.));
#263=CARTESIAN_POINT('',(1.,5.75,-7.04171909509728E-16));
#264=CARTESIAN_POINT('',(1.,-5.75,-7.04171909509728E-16));
#265=CARTESIAN_POINT('Origin',(1.,0.,0.));
#266=CARTESIAN_POINT('Origin',(1.,0.,0.));
#267=CARTESIAN_POINT('',(0.,4.75,5.81707229594993E-16));
#268=CARTESIAN_POINT('',(0.5,5.25,6.42939569552361E-16));
#269=CARTESIAN_POINT('Origin',(0.,0.,0.));
#270=CARTESIAN_POINT('Origin',(0.,5.75,0.));
#271=CARTESIAN_POINT('Origin',(5.,0.,0.));
#272=CARTESIAN_POINT('',(10.,5.75,0.));
#273=CARTESIAN_POINT('',(10.,-5.75,-7.04171909509728E-16));
#274=CARTESIAN_POINT('Origin',(10.,0.,0.));
#275=CARTESIAN_POINT('Origin',(10.,0.,0.));
#276=CARTESIAN_POINT('',(5.,-5.75,-7.04171909509728E-16));
#277=CARTESIAN_POINT('Origin',(10.,6.05000000000001,0.));
#278=CARTESIAN_POINT('',(10.,6.05000000000001,0.));
#279=CARTESIAN_POINT('',(10.,-6.05000000000001,-7.4091131348415E-16));
#280=CARTESIAN_POINT('Origin',(10.,0.,0.));
#281=CARTESIAN_POINT('Origin',(10.,0.,0.));
#282=CARTESIAN_POINT('Origin',(25.,0.,0.));
#283=CARTESIAN_POINT('',(40.,6.05000000000001,0.));
#284=CARTESIAN_POINT('',(40.,-6.05000000000001,-7.4091131348415E-16));
#285=CARTESIAN_POINT('Origin',(40.,0.,0.));
#286=CARTESIAN_POINT('Origin',(40.,0.,0.));
#287=CARTESIAN_POINT('',(25.,-6.05000000000001,-7.4091131348415E-16));
#288=CARTESIAN_POINT('Origin',(40.,5.75000000000002,0.));
#289=UNCERTAINTY_MEASURE_WITH_UNIT(LENGTH_MEASURE(0.01),#293,
'DISTANCE_ACCURACY_VALUE',
'Maximum model space distance between geometric entities at asserted c
onnectivities');
#290=UNCERTAINTY_MEASURE_WITH_UNIT(LENGTH_MEASURE(0.01),#293,
'DISTANCE_ACCURACY_VALUE',
'Maximum model space distance between geometric entities at asserted c
onnectivities');
#291=(
GEOMETRIC_REPRESENTATION_CONTEXT(3)
GLOBAL_UNCERTAINTY_ASSIGNED_CONTEXT((#289))
GLOBAL_UNIT_ASSIGNED_CONTEXT((#293,#295,#296))
REPRESENTATION_CONTEXT('','3D')
);
#292=(
GEOMETRIC_REPRESENTATION_CONTEXT(3)
GLOBAL_UNCERTAINTY_ASSIGNED_CONTEXT((#290))
GLOBAL_UNIT_ASSIGNED_CONTEXT((#293,#295,#296))
REPRESENTATION_CONTEXT('','3D')
);
#293=(
LENGTH_UNIT()
NAMED_UNIT(*)
SI_UNIT(.MILLI.,.METRE.)
);
#294=(
LENGTH_UNIT()
NAMED_UNIT(*)
SI_UNIT(.CENTI.,.METRE.)
);
#295=(
NAMED_UNIT(*)
PLANE_ANGLE_UNIT()
SI_UNIT($,.RADIAN.)
);
#296=(
NAMED_UNIT(*)
SI_UNIT($,.STERADIAN.)
SOLID_ANGLE_UNIT()
);
#297=SHAPE_DEFINITION_REPRESENTATION(#298,#299);
#298=PRODUCT_DEFINITION_SHAPE('',$,#301);
#299=SHAPE_REPRESENTATION('',(#169),#291);
#300=PRODUCT_DEFINITION_CONTEXT('part definition',#305,'design');
#301=PRODUCT_DEFINITION('23768','23768',#302,#300);
#302=PRODUCT_DEFINITION_FORMATION('',$,#307);
#303=PRODUCT_RELATED_PRODUCT_CATEGORY('23768','23768',(#307));
#304=APPLICATION_PROTOCOL_DEFINITION('international standard',
'automotive_design',2009,#305);
#305=APPLICATION_CONTEXT(
'Core Data for Automotive Mechanical Design Process');
#306=PRODUCT_CONTEXT('part definition',#305,'mechanical');
#307=PRODUCT('23768','23768',$,(#306));
#308=PRESENTATION_STYLE_ASSIGNMENT((#309));
#309=SURFACE_STYLE_USAGE(.BOTH.,#312);
#310=SURFACE_STYLE_RENDERING_WITH_PROPERTIES($,#316,(#311));
#311=SURFACE_STYLE_TRANSPARENT(0.);
#312=SURFACE_SIDE_STYLE('',(#313,#310));
#313=SURFACE_STYLE_FILL_AREA(#314);
#314=FILL_AREA_STYLE('',(#315));
#315=FILL_AREA_STYLE_COLOUR('',#316);
#316=COLOUR_RGB('',0.745098039215686,0.737254901960784,0.729411764705882);
ENDSEC;
END-ISO-10303-21;
