ISO-10303-21;
HEADER;
/****************************************************************
 * Generated by software with PDE/Lib inside                    *
 * PDElib Version 4.0, created Tue Mar 30 21:43:21 EST 2004     *
 * International Technegroup Inc. (www.iti-oh.com)              *
 ****************************************************************/
FILE_DESCRIPTION((''),'2;1');
FILE_NAME('W:\\Technique\\Inventor\\PRODUITS\\20012 RV 3.stp','2006-06-28T11:09:55',('marc'),(''),'Autodesk Inventor 9','Autodesk Inventor 9','');
FILE_SCHEMA(('AUTOMOTIVE_DESIGN { 1 0 10303 214 1 1 1 1 }'));
ENDSEC;
DATA;
#5=APPLICATION_CONTEXT('automotive design');
#6=APPLICATION_PROTOCOL_DEFINITION('Draft International Standard','automotive_design',1998,#5);
#7=PRODUCT_CONTEXT('None',#5,'mechanical');
#8=PRODUCT('20012 RV 3','20012 RV 3','None',(#7));
#9=PRODUCT_RELATED_PRODUCT_CATEGORY('part','description',(#8));
#10=PRODUCT_DEFINITION_FORMATION('None','None',#8);
#11=PRODUCT_DEFINITION_CONTEXT('part definition',#5,'design');
#12=PRODUCT_DEFINITION('None','None',#10,#11);
#18=(NAMED_UNIT(*)PLANE_ANGLE_UNIT()SI_UNIT($,.RADIAN.));
#19=DIMENSIONAL_EXPONENTS(0.0,0.0,0.0,0.0,0.0,0.0,0.0);
#20=PLANE_ANGLE_MEASURE_WITH_UNIT(PLANE_ANGLE_MEASURE(0.017453292500000),#18);
#24=(CONVERSION_BASED_UNIT('DEGREE',#20)NAMED_UNIT(#19)PLANE_ANGLE_UNIT());
#28=(NAMED_UNIT(*)SI_UNIT($,.STERADIAN.)SOLID_ANGLE_UNIT());
#32=(LENGTH_UNIT()NAMED_UNIT(*)SI_UNIT(.MILLI.,.METRE.));
#34=UNCERTAINTY_MEASURE_WITH_UNIT(LENGTH_MEASURE(0.010000000000000),#32,'DISTANCE_ACCURACY_VALUE','');
#36=(GEOMETRIC_REPRESENTATION_CONTEXT(3)GLOBAL_UNCERTAINTY_ASSIGNED_CONTEXT((#34))GLOBAL_UNIT_ASSIGNED_CONTEXT((#24,#28,#32))REPRESENTATION_CONTEXT('None','None'));
#37=AXIS2_PLACEMENT_3D('',#38,#39,#40);
#38=CARTESIAN_POINT('',(0.0,0.0,0.0));
#39=DIRECTION('',(0.0,0.0,1.0));
#40=DIRECTION('',(1.0,0.0,0.0));
#41=SHAPE_REPRESENTATION('',(#37),#36);
#42=PRODUCT_DEFINITION_SHAPE('','',#12);
#43=SHAPE_DEFINITION_REPRESENTATION(#42,#41);
#44=CARTESIAN_POINT('',(0.0,7.999999999999998,4.000000000000002));
#45=DIRECTION('',(1.0,0.0,0.0));
#46=DIRECTION('',(0.0,-0.707106781186547,-0.707106781186548));
#47=AXIS2_PLACEMENT_3D('',#44,#45,#46);
#48=CYLINDRICAL_SURFACE('',#47,2.0);
#49=CARTESIAN_POINT('',(0.0,6.585786437626904,2.585786437626905));
#50=VERTEX_POINT('',#49);
#51=CARTESIAN_POINT('',(1000.0,6.585786437626904,2.585786437626905));
#52=VERTEX_POINT('',#51);
#53=CARTESIAN_POINT('',(0.0,6.585786437626904,2.585786437626905));
#54=DIRECTION('',(1.0,0.0,0.0));
#55=VECTOR('',#54,1000.0);
#56=LINE('',#53,#55);
#57=EDGE_CURVE('',#50,#52,#56,.T.);
#58=ORIENTED_EDGE('',*,*,#57,.F.);
#59=CARTESIAN_POINT('',(0.0,5.999999999999998,4.000000000000003));
#60=VERTEX_POINT('',#59);
#61=CARTESIAN_POINT('',(0.0,7.999999999999998,4.000000000000002));
#62=DIRECTION('',(-1.0,0.0,0.0));
#63=DIRECTION('',(0.0,-0.707106781186547,-0.707106781186548));
#64=AXIS2_PLACEMENT_3D('',#61,#62,#63);
#65=CIRCLE('',#64,2.0);
#66=EDGE_CURVE('',#50,#60,#65,.T.);
#67=ORIENTED_EDGE('',*,*,#66,.T.);
#68=CARTESIAN_POINT('',(1000.0,5.999999999999998,4.000000000000003));
#69=VERTEX_POINT('',#68);
#70=CARTESIAN_POINT('',(0.0,5.999999999999998,4.000000000000003));
#71=DIRECTION('',(1.0,0.0,0.0));
#72=VECTOR('',#71,1000.0);
#73=LINE('',#70,#72);
#74=EDGE_CURVE('',#60,#69,#73,.T.);
#75=ORIENTED_EDGE('',*,*,#74,.T.);
#76=CARTESIAN_POINT('',(1000.0,7.999999999999998,4.000000000000002));
#77=DIRECTION('',(1.0,0.0,0.0));
#78=DIRECTION('',(0.0,-0.707106781186547,-0.707106781186548));
#79=AXIS2_PLACEMENT_3D('',#76,#77,#78);
#80=CIRCLE('',#79,2.0);
#81=EDGE_CURVE('',#69,#52,#80,.T.);
#82=ORIENTED_EDGE('',*,*,#81,.T.);
#83=EDGE_LOOP('',(#58,#67,#75,#82));
#84=FACE_OUTER_BOUND('',#83,.T.);
#85=ADVANCED_FACE('',(#84),#48,.F.);
#86=CARTESIAN_POINT('',(0.0,-7.999999999999998,4.000000000000001));
#87=DIRECTION('',(1.0,0.0,0.0));
#88=DIRECTION('',(0.0,0.707106781186547,-0.707106781186548));
#89=AXIS2_PLACEMENT_3D('',#86,#87,#88);
#90=CYLINDRICAL_SURFACE('',#89,2.0);
#91=CARTESIAN_POINT('',(0.0,-6.585786437626904,2.585786437626904));
#92=VERTEX_POINT('',#91);
#93=CARTESIAN_POINT('',(1000.0,-6.585786437626904,2.585786437626904));
#94=VERTEX_POINT('',#93);
#95=CARTESIAN_POINT('',(0.0,-6.585786437626904,2.585786437626904));
#96=DIRECTION('',(1.0,0.0,0.0));
#97=VECTOR('',#96,1000.0);
#98=LINE('',#95,#97);
#99=EDGE_CURVE('',#92,#94,#98,.T.);
#100=ORIENTED_EDGE('',*,*,#99,.F.);
#101=CARTESIAN_POINT('',(0.0,-7.999999999999998,2.000000000000001));
#102=VERTEX_POINT('',#101);
#103=CARTESIAN_POINT('',(0.0,-7.999999999999998,4.000000000000001));
#104=DIRECTION('',(-1.000000000000000,0.0,0.0));
#105=DIRECTION('',(0.0,0.707106781186547,-0.707106781186548));
#106=AXIS2_PLACEMENT_3D('',#103,#104,#105);
#107=CIRCLE('',#106,2.0);
#108=EDGE_CURVE('',#92,#102,#107,.T.);
#109=ORIENTED_EDGE('',*,*,#108,.T.);
#110=CARTESIAN_POINT('',(1000.0,-7.999999999999998,2.000000000000001));
#111=VERTEX_POINT('',#110);
#112=CARTESIAN_POINT('',(0.0,-7.999999999999998,2.000000000000001));
#113=DIRECTION('',(1.0,0.0,0.0));
#114=VECTOR('',#113,1000.0);
#115=LINE('',#112,#114);
#116=EDGE_CURVE('',#102,#111,#115,.T.);
#117=ORIENTED_EDGE('',*,*,#116,.T.);
#118=CARTESIAN_POINT('',(1000.0,-7.999999999999998,4.000000000000001));
#119=DIRECTION('',(1.000000000000000,0.0,0.0));
#120=DIRECTION('',(0.0,0.707106781186547,-0.707106781186548));
#121=AXIS2_PLACEMENT_3D('',#118,#119,#120);
#122=CIRCLE('',#121,2.0);
#123=EDGE_CURVE('',#111,#94,#122,.T.);
#124=ORIENTED_EDGE('',*,*,#123,.T.);
#125=EDGE_LOOP('',(#100,#109,#117,#124));
#126=FACE_OUTER_BOUND('',#125,.T.);
#127=ADVANCED_FACE('',(#126),#90,.F.);
#128=CARTESIAN_POINT('',(0.0,8.000000000000002,4.000000000000002));
#129=DIRECTION('',(1.0,0.0,0.0));
#130=DIRECTION('',(0.0,-0.707106781186547,-0.707106781186548));
#131=AXIS2_PLACEMENT_3D('',#128,#129,#130);
#132=CYLINDRICAL_SURFACE('',#131,4.0);
#133=CARTESIAN_POINT('',(0.0,5.171572875253812,1.171572875253812));
#134=VERTEX_POINT('',#133);
#135=CARTESIAN_POINT('',(1000.0,5.171572875253812,1.171572875253812));
#136=VERTEX_POINT('',#135);
#137=CARTESIAN_POINT('',(0.0,5.171572875253812,1.171572875253812));
#138=DIRECTION('',(1.0,0.0,0.0));
#139=VECTOR('',#138,1000.0);
#140=LINE('',#137,#139);
#141=EDGE_CURVE('',#134,#136,#140,.T.);
#142=ORIENTED_EDGE('',*,*,#141,.F.);
#143=CARTESIAN_POINT('',(0.0,8.000000000000004,1.547907E-015));
#144=VERTEX_POINT('',#143);
#145=CARTESIAN_POINT('',(0.0,8.000000000000002,4.000000000000002));
#146=DIRECTION('',(1.0,0.0,0.0));
#147=DIRECTION('',(0.0,-0.707106781186547,-0.707106781186548));
#148=AXIS2_PLACEMENT_3D('',#145,#146,#147);
#149=CIRCLE('',#148,4.0);
#150=EDGE_CURVE('',#134,#144,#149,.T.);
#151=ORIENTED_EDGE('',*,*,#150,.T.);
#152=CARTESIAN_POINT('',(1000.0,8.000000000000004,1.547907E-015));
#153=VERTEX_POINT('',#152);
#154=CARTESIAN_POINT('',(0.0,8.000000000000004,1.547907E-015));
#155=DIRECTION('',(1.0,0.0,0.0));
#156=VECTOR('',#155,1000.0);
#157=LINE('',#154,#156);
#158=EDGE_CURVE('',#144,#153,#157,.T.);
#159=ORIENTED_EDGE('',*,*,#158,.T.);
#160=CARTESIAN_POINT('',(1000.0,8.000000000000002,4.000000000000002));
#161=DIRECTION('',(-1.0,0.0,0.0));
#162=DIRECTION('',(0.0,-0.707106781186547,-0.707106781186548));
#163=AXIS2_PLACEMENT_3D('',#160,#161,#162);
#164=CIRCLE('',#163,4.0);
#165=EDGE_CURVE('',#153,#136,#164,.T.);
#166=ORIENTED_EDGE('',*,*,#165,.T.);
#167=EDGE_LOOP('',(#142,#151,#159,#166));
#168=FACE_OUTER_BOUND('',#167,.T.);
#169=ADVANCED_FACE('',(#168),#132,.T.);
#170=CARTESIAN_POINT('',(0.0,-7.999999999999998,4.000000000000002));
#171=DIRECTION('',(1.0,0.0,0.0));
#172=DIRECTION('',(0.0,0.707106781186547,-0.707106781186548));
#173=AXIS2_PLACEMENT_3D('',#170,#171,#172);
#174=CYLINDRICAL_SURFACE('',#173,4.0);
#175=CARTESIAN_POINT('',(0.0,-5.171572875253810,1.171572875253810));
#176=VERTEX_POINT('',#175);
#177=CARTESIAN_POINT('',(1000.0,-5.171572875253810,1.171572875253810));
#178=VERTEX_POINT('',#177);
#179=CARTESIAN_POINT('',(0.0,-5.171572875253810,1.171572875253810));
#180=DIRECTION('',(1.0,0.0,0.0));
#181=VECTOR('',#180,1000.0);
#182=LINE('',#179,#181);
#183=EDGE_CURVE('',#176,#178,#182,.T.);
#184=ORIENTED_EDGE('',*,*,#183,.F.);
#185=CARTESIAN_POINT('',(0.0,-4.000000000000000,4.000000000000003));
#186=VERTEX_POINT('',#185);
#187=CARTESIAN_POINT('',(0.0,-7.999999999999998,4.000000000000002));
#188=DIRECTION('',(1.0,0.0,0.0));
#189=DIRECTION('',(0.0,0.707106781186547,-0.707106781186548));
#190=AXIS2_PLACEMENT_3D('',#187,#188,#189);
#191=CIRCLE('',#190,4.0);
#192=EDGE_CURVE('',#176,#186,#191,.T.);
#193=ORIENTED_EDGE('',*,*,#192,.T.);
#194=CARTESIAN_POINT('',(1000.0,-4.000000000000000,4.000000000000003));
#195=VERTEX_POINT('',#194);
#196=CARTESIAN_POINT('',(0.0,-4.000000000000000,4.000000000000003));
#197=DIRECTION('',(1.0,0.0,0.0));
#198=VECTOR('',#197,1000.0);
#199=LINE('',#196,#198);
#200=EDGE_CURVE('',#186,#195,#199,.T.);
#201=ORIENTED_EDGE('',*,*,#200,.T.);
#202=CARTESIAN_POINT('',(1000.0,-7.999999999999998,4.000000000000002));
#203=DIRECTION('',(-1.0,0.0,0.0));
#204=DIRECTION('',(0.0,0.707106781186547,-0.707106781186548));
#205=AXIS2_PLACEMENT_3D('',#202,#203,#204);
#206=CIRCLE('',#205,4.0);
#207=EDGE_CURVE('',#195,#178,#206,.T.);
#208=ORIENTED_EDGE('',*,*,#207,.T.);
#209=EDGE_LOOP('',(#184,#193,#201,#208));
#210=FACE_OUTER_BOUND('',#209,.T.);
#211=ADVANCED_FACE('',(#210),#174,.T.);
#212=CARTESIAN_POINT('',(0.0,-7.999999999999998,4.000000000000002));
#213=DIRECTION('',(1.0,0.0,0.0));
#214=DIRECTION('',(0.0,0.707106781186547,-0.707106781186548));
#215=AXIS2_PLACEMENT_3D('',#212,#213,#214);
#216=CYLINDRICAL_SURFACE('',#215,4.0);
#217=ORIENTED_EDGE('',*,*,#183,.T.);
#218=CARTESIAN_POINT('',(1000.0,-7.999999999999999,1.547907E-015));
#219=VERTEX_POINT('',#218);
#220=CARTESIAN_POINT('',(1000.0,-7.999999999999998,4.000000000000002));
#221=DIRECTION('',(-1.0,0.0,0.0));
#222=DIRECTION('',(0.0,0.707106781186547,-0.707106781186548));
#223=AXIS2_PLACEMENT_3D('',#220,#221,#222);
#224=CIRCLE('',#223,4.0);
#225=EDGE_CURVE('',#178,#219,#224,.T.);
#226=ORIENTED_EDGE('',*,*,#225,.T.);
#227=CARTESIAN_POINT('',(0.0,-7.999999999999999,1.547907E-015));
#228=VERTEX_POINT('',#227);
#229=CARTESIAN_POINT('',(1000.0,-7.999999999999999,1.547907E-015));
#230=DIRECTION('',(-1.0,0.0,0.0));
#231=VECTOR('',#230,1000.0);
#232=LINE('',#229,#231);
#233=EDGE_CURVE('',#219,#228,#232,.T.);
#234=ORIENTED_EDGE('',*,*,#233,.T.);
#235=CARTESIAN_POINT('',(0.0,-7.999999999999998,4.000000000000002));
#236=DIRECTION('',(1.0,0.0,0.0));
#237=DIRECTION('',(0.0,0.707106781186547,-0.707106781186548));
#238=AXIS2_PLACEMENT_3D('',#235,#236,#237);
#239=CIRCLE('',#238,4.0);
#240=EDGE_CURVE('',#228,#176,#239,.T.);
#241=ORIENTED_EDGE('',*,*,#240,.T.);
#242=EDGE_LOOP('',(#217,#226,#234,#241));
#243=FACE_OUTER_BOUND('',#242,.T.);
#244=ADVANCED_FACE('',(#243),#216,.T.);
#245=CARTESIAN_POINT('',(0.0,13.378886899396310,2.585198736949693));
#246=DIRECTION('',(1.0,0.0,0.0));
#247=DIRECTION('',(0.0,0.0,-1.0));
#248=AXIS2_PLACEMENT_3D('',#245,#246,#247);
#249=PLANE('',#248);
#250=ORIENTED_EDGE('',*,*,#240,.F.);
#251=CARTESIAN_POINT('',(0.0,-30.0,5.481726E-015));
#252=VERTEX_POINT('',#251);
#253=CARTESIAN_POINT('',(0.0,-7.999999999999999,1.547907E-015));
#254=DIRECTION('',(0.0,-1.0,0.0));
#255=VECTOR('',#254,22.0);
#256=LINE('',#253,#255);
#257=EDGE_CURVE('',#228,#252,#256,.T.);
#258=ORIENTED_EDGE('',*,*,#257,.T.);
#259=CARTESIAN_POINT('',(0.0,-30.0,2.000000000000007));
#260=VERTEX_POINT('',#259);
#261=CARTESIAN_POINT('',(0.0,-30.0,5.481726E-015));
#262=DIRECTION('',(0.0,0.0,1.0));
#263=VECTOR('',#262,2.000000000000002);
#264=LINE('',#261,#263);
#265=EDGE_CURVE('',#252,#260,#264,.T.);
#266=ORIENTED_EDGE('',*,*,#265,.T.);
#267=CARTESIAN_POINT('',(0.0,-30.0,2.000000000000007));
#268=DIRECTION('',(0.0,1.0,0.0));
#269=VECTOR('',#268,22.0);
#270=LINE('',#267,#269);
#271=EDGE_CURVE('',#260,#102,#270,.T.);
#272=ORIENTED_EDGE('',*,*,#271,.T.);
#273=ORIENTED_EDGE('',*,*,#108,.F.);
#274=CARTESIAN_POINT('',(0.0,-5.999999999999998,4.000000000000003));
#275=VERTEX_POINT('',#274);
#276=CARTESIAN_POINT('',(0.0,-7.999999999999998,4.000000000000001));
#277=DIRECTION('',(-1.000000000000000,0.0,0.0));
#278=DIRECTION('',(0.0,0.707106781186547,-0.707106781186548));
#279=AXIS2_PLACEMENT_3D('',#276,#277,#278);
#280=CIRCLE('',#279,2.0);
#281=EDGE_CURVE('',#275,#92,#280,.T.);
#282=ORIENTED_EDGE('',*,*,#281,.F.);
#283=CARTESIAN_POINT('',(0.0,0.0,4.0));
#284=DIRECTION('',(1.0,0.0,0.0));
#285=DIRECTION('',(0.0,1.0,0.0));
#286=AXIS2_PLACEMENT_3D('',#283,#284,#285);
#287=CIRCLE('',#286,6.0);
#288=EDGE_CURVE('',#60,#275,#287,.T.);
#289=ORIENTED_EDGE('',*,*,#288,.F.);
#290=ORIENTED_EDGE('',*,*,#66,.F.);
#291=CARTESIAN_POINT('',(0.0,7.999999999999998,2.000000000000001));
#292=VERTEX_POINT('',#291);
#293=CARTESIAN_POINT('',(0.0,7.999999999999998,4.000000000000002));
#294=DIRECTION('',(-1.0,0.0,0.0));
#295=DIRECTION('',(0.0,-0.707106781186547,-0.707106781186548));
#296=AXIS2_PLACEMENT_3D('',#293,#294,#295);
#297=CIRCLE('',#296,2.0);
#298=EDGE_CURVE('',#292,#50,#297,.T.);
#299=ORIENTED_EDGE('',*,*,#298,.F.);
#300=CARTESIAN_POINT('',(0.0,30.0,2.000000000000007));
#301=VERTEX_POINT('',#300);
#302=CARTESIAN_POINT('',(0.0,30.0,2.000000000000007));
#303=DIRECTION('',(0.0,-1.0,0.0));
#304=VECTOR('',#303,22.0);
#305=LINE('',#302,#304);
#306=EDGE_CURVE('',#301,#292,#305,.T.);
#307=ORIENTED_EDGE('',*,*,#306,.F.);
#308=CARTESIAN_POINT('',(0.0,30.0,5.481726E-015));
#309=VERTEX_POINT('',#308);
#310=CARTESIAN_POINT('',(0.0,30.0,5.481726E-015));
#311=DIRECTION('',(0.0,0.0,1.0));
#312=VECTOR('',#311,2.000000000000002);
#313=LINE('',#310,#312);
#314=EDGE_CURVE('',#309,#301,#313,.T.);
#315=ORIENTED_EDGE('',*,*,#314,.F.);
#316=CARTESIAN_POINT('',(0.0,8.000000000000004,1.547907E-015));
#317=DIRECTION('',(0.0,1.0,0.0));
#318=VECTOR('',#317,21.999999999999996);
#319=LINE('',#316,#318);
#320=EDGE_CURVE('',#144,#309,#319,.T.);
#321=ORIENTED_EDGE('',*,*,#320,.F.);
#322=ORIENTED_EDGE('',*,*,#150,.F.);
#323=CARTESIAN_POINT('',(0.0,4.000000000000000,4.000000000000003));
#324=VERTEX_POINT('',#323);
#325=CARTESIAN_POINT('',(0.0,8.000000000000002,4.000000000000002));
#326=DIRECTION('',(1.0,0.0,0.0));
#327=DIRECTION('',(0.0,-0.707106781186547,-0.707106781186548));
#328=AXIS2_PLACEMENT_3D('',#325,#326,#327);
#329=CIRCLE('',#328,4.0);
#330=EDGE_CURVE('',#324,#134,#329,.T.);
#331=ORIENTED_EDGE('',*,*,#330,.F.);
#332=CARTESIAN_POINT('',(0.0,0.0,4.0));
#333=DIRECTION('',(1.0,0.0,0.0));
#334=DIRECTION('',(0.0,1.0,0.0));
#335=AXIS2_PLACEMENT_3D('',#332,#333,#334);
#336=CIRCLE('',#335,4.000000000000000);
#337=EDGE_CURVE('',#324,#186,#336,.T.);
#338=ORIENTED_EDGE('',*,*,#337,.T.);
#339=ORIENTED_EDGE('',*,*,#192,.F.);
#340=EDGE_LOOP('',(#250,#258,#266,#272,#273,#282,#289,#290,#299,#307,#315,#321,#322,#331,#338,#339));
#341=FACE_OUTER_BOUND('',#340,.T.);
#342=ADVANCED_FACE('',(#341),#249,.F.);
#343=CARTESIAN_POINT('',(0.0,8.000000000000002,4.000000000000002));
#344=DIRECTION('',(1.0,0.0,0.0));
#345=DIRECTION('',(0.0,-0.707106781186547,-0.707106781186548));
#346=AXIS2_PLACEMENT_3D('',#343,#344,#345);
#347=CYLINDRICAL_SURFACE('',#346,4.0);
#348=ORIENTED_EDGE('',*,*,#141,.T.);
#349=CARTESIAN_POINT('',(1000.0,4.000000000000000,4.000000000000003));
#350=VERTEX_POINT('',#349);
#351=CARTESIAN_POINT('',(1000.0,8.000000000000002,4.000000000000002));
#352=DIRECTION('',(-1.0,0.0,0.0));
#353=DIRECTION('',(0.0,-0.707106781186547,-0.707106781186548));
#354=AXIS2_PLACEMENT_3D('',#351,#352,#353);
#355=CIRCLE('',#354,4.0);
#356=EDGE_CURVE('',#136,#350,#355,.T.);
#357=ORIENTED_EDGE('',*,*,#356,.T.);
#358=CARTESIAN_POINT('',(0.0,4.000000000000000,4.000000000000003));
#359=DIRECTION('',(1.0,0.0,0.0));
#360=VECTOR('',#359,1000.0);
#361=LINE('',#358,#360);
#362=EDGE_CURVE('',#324,#350,#361,.T.);
#363=ORIENTED_EDGE('',*,*,#362,.F.);
#364=ORIENTED_EDGE('',*,*,#330,.T.);
#365=EDGE_LOOP('',(#348,#357,#363,#364));
#366=FACE_OUTER_BOUND('',#365,.T.);
#367=ADVANCED_FACE('',(#366),#347,.T.);
#368=CARTESIAN_POINT('',(0.0,30.0,5.481726E-015));
#369=DIRECTION('',(0.0,0.0,-1.0));
#370=DIRECTION('',(-1.0,0.0,0.0));
#371=AXIS2_PLACEMENT_3D('',#368,#369,#370);
#372=PLANE('',#371);
#373=ORIENTED_EDGE('',*,*,#158,.F.);
#374=ORIENTED_EDGE('',*,*,#320,.T.);
#375=CARTESIAN_POINT('',(1000.0,30.0,5.481726E-015));
#376=VERTEX_POINT('',#375);
#377=CARTESIAN_POINT('',(0.0,30.0,5.481726E-015));
#378=DIRECTION('',(1.0,0.0,0.0));
#379=VECTOR('',#378,1000.0);
#380=LINE('',#377,#379);
#381=EDGE_CURVE('',#309,#376,#380,.T.);
#382=ORIENTED_EDGE('',*,*,#381,.T.);
#383=CARTESIAN_POINT('',(1000.0,30.0,5.481726E-015));
#384=DIRECTION('',(0.0,-1.0,0.0));
#385=VECTOR('',#384,21.999999999999996);
#386=LINE('',#383,#385);
#387=EDGE_CURVE('',#376,#153,#386,.T.);
#388=ORIENTED_EDGE('',*,*,#387,.T.);
#389=EDGE_LOOP('',(#373,#374,#382,#388));
#390=FACE_OUTER_BOUND('',#389,.T.);
#391=ADVANCED_FACE('',(#390),#372,.T.);
#392=CARTESIAN_POINT('',(0.0,-7.999999999999998,4.000000000000001));
#393=DIRECTION('',(1.0,0.0,0.0));
#394=DIRECTION('',(0.0,0.707106781186547,-0.707106781186548));
#395=AXIS2_PLACEMENT_3D('',#392,#393,#394);
#396=CYLINDRICAL_SURFACE('',#395,2.0);
#397=ORIENTED_EDGE('',*,*,#99,.T.);
#398=CARTESIAN_POINT('',(1000.0,-5.999999999999998,4.000000000000003));
#399=VERTEX_POINT('',#398);
#400=CARTESIAN_POINT('',(1000.0,-7.999999999999998,4.000000000000001));
#401=DIRECTION('',(1.000000000000000,0.0,0.0));
#402=DIRECTION('',(0.0,0.707106781186547,-0.707106781186548));
#403=AXIS2_PLACEMENT_3D('',#400,#401,#402);
#404=CIRCLE('',#403,2.0);
#405=EDGE_CURVE('',#94,#399,#404,.T.);
#406=ORIENTED_EDGE('',*,*,#405,.T.);
#407=CARTESIAN_POINT('',(0.0,-5.999999999999998,4.000000000000003));
#408=DIRECTION('',(1.0,0.0,0.0));
#409=VECTOR('',#408,1000.0);
#410=LINE('',#407,#409);
#411=EDGE_CURVE('',#275,#399,#410,.T.);
#412=ORIENTED_EDGE('',*,*,#411,.F.);
#413=ORIENTED_EDGE('',*,*,#281,.T.);
#414=EDGE_LOOP('',(#397,#406,#412,#413));
#415=FACE_OUTER_BOUND('',#414,.T.);
#416=ADVANCED_FACE('',(#415),#396,.F.);
#417=CARTESIAN_POINT('',(0.0,-30.0,2.000000000000007));
#418=CARTESIAN_POINT('',(1000.0,-30.0,2.000000000000007));
#419=CARTESIAN_POINT('',(0.0,-8.0,2.000000000000000));
#420=CARTESIAN_POINT('',(1000.0,-8.0,2.0));
#421=B_SPLINE_SURFACE_WITH_KNOTS('',1,1,((#417,#419),(#418,#420)),.UNSPECIFIED.,.F.,.F.,.U.,(2,2),(2,2),(0.0,1000.0),(0.0,22.0),.UNSPECIFIED.);
#422=ORIENTED_EDGE('',*,*,#116,.F.);
#423=ORIENTED_EDGE('',*,*,#271,.F.);
#424=CARTESIAN_POINT('',(1000.0,-30.0,2.000000000000007));
#425=VERTEX_POINT('',#424);
#426=CARTESIAN_POINT('',(0.0,-30.0,2.000000000000007));
#427=DIRECTION('',(1.0,0.0,0.0));
#428=VECTOR('',#427,1000.0);
#429=LINE('',#426,#428);
#430=EDGE_CURVE('',#260,#425,#429,.T.);
#431=ORIENTED_EDGE('',*,*,#430,.T.);
#432=CARTESIAN_POINT('',(1000.0,-7.999999999999998,2.000000000000001));
#433=DIRECTION('',(0.0,-1.0,0.0));
#434=VECTOR('',#433,22.0);
#435=LINE('',#432,#434);
#436=EDGE_CURVE('',#111,#425,#435,.T.);
#437=ORIENTED_EDGE('',*,*,#436,.F.);
#438=EDGE_LOOP('',(#422,#423,#431,#437));
#439=FACE_OUTER_BOUND('',#438,.T.);
#440=ADVANCED_FACE('',(#439),#421,.T.);
#441=CARTESIAN_POINT('',(0.0,7.999999999999998,4.000000000000002));
#442=DIRECTION('',(1.0,0.0,0.0));
#443=DIRECTION('',(0.0,-0.707106781186547,-0.707106781186548));
#444=AXIS2_PLACEMENT_3D('',#441,#442,#443);
#445=CYLINDRICAL_SURFACE('',#444,2.0);
#446=ORIENTED_EDGE('',*,*,#57,.T.);
#447=CARTESIAN_POINT('',(1000.0,7.999999999999998,2.000000000000001));
#448=VERTEX_POINT('',#447);
#449=CARTESIAN_POINT('',(1000.0,7.999999999999998,4.000000000000002));
#450=DIRECTION('',(1.0,0.0,0.0));
#451=DIRECTION('',(0.0,-0.707106781186547,-0.707106781186548));
#452=AXIS2_PLACEMENT_3D('',#449,#450,#451);
#453=CIRCLE('',#452,2.0);
#454=EDGE_CURVE('',#52,#448,#453,.T.);
#455=ORIENTED_EDGE('',*,*,#454,.T.);
#456=CARTESIAN_POINT('',(1000.0,7.999999999999998,2.000000000000001));
#457=DIRECTION('',(-1.0,0.0,0.0));
#458=VECTOR('',#457,1000.0);
#459=LINE('',#456,#458);
#460=EDGE_CURVE('',#448,#292,#459,.T.);
#461=ORIENTED_EDGE('',*,*,#460,.T.);
#462=ORIENTED_EDGE('',*,*,#298,.T.);
#463=EDGE_LOOP('',(#446,#455,#461,#462));
#464=FACE_OUTER_BOUND('',#463,.T.);
#465=ADVANCED_FACE('',(#464),#445,.F.);
#466=CARTESIAN_POINT('',(1000.0,-30.0,5.329071E-015));
#467=CARTESIAN_POINT('',(1000.0,-30.0,2.000000000000007));
#468=CARTESIAN_POINT('',(0.0,-30.0,5.329071E-015));
#469=CARTESIAN_POINT('',(0.0,-30.0,2.000000000000007));
#470=B_SPLINE_SURFACE_WITH_KNOTS('',1,1,((#466,#468),(#467,#469)),.UNSPECIFIED.,.F.,.F.,.U.,(2,2),(2,2),(0.0,2.000000000000002),(0.0,1000.0),.UNSPECIFIED.);
#471=CARTESIAN_POINT('',(1000.0,-30.0,5.481726E-015));
#472=VERTEX_POINT('',#471);
#473=CARTESIAN_POINT('',(1000.0,-30.0,2.000000000000007));
#474=DIRECTION('',(0.0,0.0,-1.0));
#475=VECTOR('',#474,2.000000000000002);
#476=LINE('',#473,#475);
#477=EDGE_CURVE('',#425,#472,#476,.T.);
#478=ORIENTED_EDGE('',*,*,#477,.F.);
#479=ORIENTED_EDGE('',*,*,#430,.F.);
#480=ORIENTED_EDGE('',*,*,#265,.F.);
#481=CARTESIAN_POINT('',(0.0,-30.0,5.481726E-015));
#482=DIRECTION('',(1.0,0.0,0.0));
#483=VECTOR('',#482,1000.0);
#484=LINE('',#481,#483);
#485=EDGE_CURVE('',#252,#472,#484,.T.);
#486=ORIENTED_EDGE('',*,*,#485,.T.);
#487=EDGE_LOOP('',(#478,#479,#480,#486));
#488=FACE_OUTER_BOUND('',#487,.T.);
#489=ADVANCED_FACE('',(#488),#470,.T.);
#490=CARTESIAN_POINT('',(1000.0,-30.0,5.481726E-015));
#491=CARTESIAN_POINT('',(0.0,-30.0,5.481726E-015));
#492=CARTESIAN_POINT('',(1000.0,-8.0,1.547907E-015));
#493=CARTESIAN_POINT('',(0.0,-8.0,1.547907E-015));
#494=B_SPLINE_SURFACE_WITH_KNOTS('',1,1,((#490,#492),(#491,#493)),.UNSPECIFIED.,.F.,.F.,.U.,(2,2),(2,2),(0.0,1000.0),(0.0,22.0),.UNSPECIFIED.);
#495=ORIENTED_EDGE('',*,*,#233,.F.);
#496=CARTESIAN_POINT('',(1000.0,-30.0,5.481726E-015));
#497=DIRECTION('',(0.0,1.0,0.0));
#498=VECTOR('',#497,22.0);
#499=LINE('',#496,#498);
#500=EDGE_CURVE('',#472,#219,#499,.T.);
#501=ORIENTED_EDGE('',*,*,#500,.F.);
#502=ORIENTED_EDGE('',*,*,#485,.F.);
#503=ORIENTED_EDGE('',*,*,#257,.F.);
#504=EDGE_LOOP('',(#495,#501,#502,#503));
#505=FACE_OUTER_BOUND('',#504,.T.);
#506=ADVANCED_FACE('',(#505),#494,.T.);
#507=CARTESIAN_POINT('',(0.0,30.0,2.000000000000007));
#508=DIRECTION('',(0.0,1.0,0.0));
#509=DIRECTION('',(0.0,0.0,1.0));
#510=AXIS2_PLACEMENT_3D('',#507,#508,#509);
#511=PLANE('',#510);
#512=CARTESIAN_POINT('',(1000.0,30.0,2.000000000000007));
#513=VERTEX_POINT('',#512);
#514=CARTESIAN_POINT('',(1000.0,30.0,2.000000000000007));
#515=DIRECTION('',(0.0,0.0,-1.0));
#516=VECTOR('',#515,2.000000000000002);
#517=LINE('',#514,#516);
#518=EDGE_CURVE('',#513,#376,#517,.T.);
#519=ORIENTED_EDGE('',*,*,#518,.T.);
#520=ORIENTED_EDGE('',*,*,#381,.F.);
#521=ORIENTED_EDGE('',*,*,#314,.T.);
#522=CARTESIAN_POINT('',(0.0,30.0,2.000000000000007));
#523=DIRECTION('',(1.0,0.0,0.0));
#524=VECTOR('',#523,1000.0);
#525=LINE('',#522,#524);
#526=EDGE_CURVE('',#301,#513,#525,.T.);
#527=ORIENTED_EDGE('',*,*,#526,.T.);
#528=EDGE_LOOP('',(#519,#520,#521,#527));
#529=FACE_OUTER_BOUND('',#528,.T.);
#530=ADVANCED_FACE('',(#529),#511,.T.);
#531=CARTESIAN_POINT('',(0.0,0.0,4.0));
#532=DIRECTION('',(1.0,0.0,0.0));
#533=DIRECTION('',(0.0,-1.0,0.0));
#534=AXIS2_PLACEMENT_3D('',#531,#532,#533);
#535=CYLINDRICAL_SURFACE('',#534,4.000000000000000);
#536=CARTESIAN_POINT('',(1000.0,0.0,4.0));
#537=DIRECTION('',(-1.0,0.0,0.0));
#538=DIRECTION('',(0.0,1.0,0.0));
#539=AXIS2_PLACEMENT_3D('',#536,#537,#538);
#540=CIRCLE('',#539,4.000000000000000);
#541=EDGE_CURVE('',#195,#350,#540,.T.);
#542=ORIENTED_EDGE('',*,*,#541,.F.);
#543=ORIENTED_EDGE('',*,*,#200,.F.);
#544=ORIENTED_EDGE('',*,*,#337,.F.);
#545=ORIENTED_EDGE('',*,*,#362,.T.);
#546=EDGE_LOOP('',(#542,#543,#544,#545));
#547=FACE_OUTER_BOUND('',#546,.T.);
#548=ADVANCED_FACE('',(#547),#535,.F.);
#549=CARTESIAN_POINT('',(0.0,0.0,4.0));
#550=DIRECTION('',(1.0,0.0,0.0));
#551=DIRECTION('',(0.0,1.0,0.0));
#552=AXIS2_PLACEMENT_3D('',#549,#550,#551);
#553=CYLINDRICAL_SURFACE('',#552,6.0);
#554=CARTESIAN_POINT('',(1000.0,0.0,4.0));
#555=DIRECTION('',(-1.0,0.0,0.0));
#556=DIRECTION('',(0.0,1.0,0.0));
#557=AXIS2_PLACEMENT_3D('',#554,#555,#556);
#558=CIRCLE('',#557,6.0);
#559=EDGE_CURVE('',#399,#69,#558,.T.);
#560=ORIENTED_EDGE('',*,*,#559,.T.);
#561=ORIENTED_EDGE('',*,*,#74,.F.);
#562=ORIENTED_EDGE('',*,*,#288,.T.);
#563=ORIENTED_EDGE('',*,*,#411,.T.);
#564=EDGE_LOOP('',(#560,#561,#562,#563));
#565=FACE_OUTER_BOUND('',#564,.T.);
#566=ADVANCED_FACE('',(#565),#553,.T.);
#567=CARTESIAN_POINT('',(0.0,6.0,2.0));
#568=DIRECTION('',(0.0,0.0,1.0));
#569=DIRECTION('',(1.0,0.0,0.0));
#570=AXIS2_PLACEMENT_3D('',#567,#568,#569);
#571=PLANE('',#570);
#572=ORIENTED_EDGE('',*,*,#460,.F.);
#573=CARTESIAN_POINT('',(1000.0,7.999999999999998,2.000000000000001));
#574=DIRECTION('',(0.0,1.0,0.0));
#575=VECTOR('',#574,22.0);
#576=LINE('',#573,#575);
#577=EDGE_CURVE('',#448,#513,#576,.T.);
#578=ORIENTED_EDGE('',*,*,#577,.T.);
#579=ORIENTED_EDGE('',*,*,#526,.F.);
#580=ORIENTED_EDGE('',*,*,#306,.T.);
#581=EDGE_LOOP('',(#572,#578,#579,#580));
#582=FACE_OUTER_BOUND('',#581,.T.);
#583=ADVANCED_FACE('',(#582),#571,.T.);
#584=CARTESIAN_POINT('',(1000.0,13.378886899396310,2.585198736949693));
#585=DIRECTION('',(1.0,0.0,0.0));
#586=DIRECTION('',(0.0,0.0,-1.0));
#587=AXIS2_PLACEMENT_3D('',#584,#585,#586);
#588=PLANE('',#587);
#589=ORIENTED_EDGE('',*,*,#207,.F.);
#590=ORIENTED_EDGE('',*,*,#541,.T.);
#591=ORIENTED_EDGE('',*,*,#356,.F.);
#592=ORIENTED_EDGE('',*,*,#165,.F.);
#593=ORIENTED_EDGE('',*,*,#387,.F.);
#594=ORIENTED_EDGE('',*,*,#518,.F.);
#595=ORIENTED_EDGE('',*,*,#577,.F.);
#596=ORIENTED_EDGE('',*,*,#454,.F.);
#597=ORIENTED_EDGE('',*,*,#81,.F.);
#598=ORIENTED_EDGE('',*,*,#559,.F.);
#599=ORIENTED_EDGE('',*,*,#405,.F.);
#600=ORIENTED_EDGE('',*,*,#123,.F.);
#601=ORIENTED_EDGE('',*,*,#436,.T.);
#602=ORIENTED_EDGE('',*,*,#477,.T.);
#603=ORIENTED_EDGE('',*,*,#500,.T.);
#604=ORIENTED_EDGE('',*,*,#225,.F.);
#605=EDGE_LOOP('',(#589,#590,#591,#592,#593,#594,#595,#596,#597,#598,#599,#600,#601,#602,#603,#604));
#606=FACE_OUTER_BOUND('',#605,.T.);
#607=ADVANCED_FACE('',(#606),#588,.T.);
#608=CLOSED_SHELL('',(#85,#127,#169,#211,#244,#342,#367,#391,#416,#440,#465,#489,#506,#530,#548,#566,#583,#607));
#609=MANIFOLD_SOLID_BREP('',#608);
#610=COLOUR_RGB('Par défaut',0.752941191196442,0.752941191196442,0.752941191196442);
#611=FILL_AREA_STYLE_COLOUR('Par défaut',#610);
#612=FILL_AREA_STYLE('Par défaut',(#611));
#613=SURFACE_STYLE_FILL_AREA(#612);
#614=SURFACE_SIDE_STYLE('Par défaut',(#613));
#615=SURFACE_STYLE_USAGE(.BOTH.,#614);
#616=PRESENTATION_STYLE_ASSIGNMENT((#615));
#617=STYLED_ITEM('',(#616),#609);
#618=MECHANICAL_DESIGN_GEOMETRIC_PRESENTATION_REPRESENTATION('',(#617),#36);
#619=ADVANCED_BREP_SHAPE_REPRESENTATION('ABSR',(#609),#36);
#620=SHAPE_REPRESENTATION_RELATIONSHIP('SRR','None',#619,#41);
ENDSEC;
END-ISO-10303-21;
