ISO-10303-21;
HEADER;
/* Generated by software containing ST-Developer
 * from STEP Tools, Inc. (www.steptools.com) 
 */

FILE_DESCRIPTION(
/* description */ (''),
/* implementation_level */ '2;1');

FILE_NAME(
/* name */ 'R:\\BE\\Transfert-temporaire\\21625.stp',
/* time_stamp */ '2019-08-14T15:54:20+02:00',
/* author */ ('Lionel'),
/* organization */ (''),
/* preprocessor_version */ 'ST-DEVELOPER v17.2',
/* originating_system */ 'Autodesk Inventor 2019',
/* authorisation */ '');

FILE_SCHEMA (('AUTOMOTIVE_DESIGN { 1 0 10303 214 3 1 1 }'));
ENDSEC;

DATA;
#10=MECHANICAL_DESIGN_GEOMETRIC_PRESENTATION_REPRESENTATION('',(#13),#547);
#11=SHAPE_REPRESENTATION_RELATIONSHIP('SRR','None',#554,#12);
#12=ADVANCED_BREP_SHAPE_REPRESENTATION('',(#14),#546);
#13=STYLED_ITEM('',(#563),#14);
#14=MANIFOLD_SOLID_BREP('Solide1',#313);
#15=FACE_BOUND('',#48,.T.);
#16=FACE_BOUND('',#49,.T.);
#17=FACE_BOUND('',#50,.T.);
#18=FACE_BOUND('',#64,.T.);
#19=FACE_BOUND('',#65,.T.);
#20=FACE_BOUND('',#66,.T.);
#21=PLANE('',#336);
#22=PLANE('',#337);
#23=PLANE('',#347);
#24=PLANE('',#350);
#25=PLANE('',#355);
#26=PLANE('',#358);
#27=PLANE('',#363);
#28=PLANE('',#364);
#29=FACE_OUTER_BOUND('',#45,.T.);
#30=FACE_OUTER_BOUND('',#46,.T.);
#31=FACE_OUTER_BOUND('',#47,.T.);
#32=FACE_OUTER_BOUND('',#51,.T.);
#33=FACE_OUTER_BOUND('',#52,.T.);
#34=FACE_OUTER_BOUND('',#53,.T.);
#35=FACE_OUTER_BOUND('',#54,.T.);
#36=FACE_OUTER_BOUND('',#55,.T.);
#37=FACE_OUTER_BOUND('',#56,.T.);
#38=FACE_OUTER_BOUND('',#57,.T.);
#39=FACE_OUTER_BOUND('',#58,.T.);
#40=FACE_OUTER_BOUND('',#59,.T.);
#41=FACE_OUTER_BOUND('',#60,.T.);
#42=FACE_OUTER_BOUND('',#61,.T.);
#43=FACE_OUTER_BOUND('',#62,.T.);
#44=FACE_OUTER_BOUND('',#63,.T.);
#45=EDGE_LOOP('',(#205,#206,#207,#208));
#46=EDGE_LOOP('',(#209,#210,#211,#212));
#47=EDGE_LOOP('',(#213,#214,#215,#216,#217,#218,#219,#220));
#48=EDGE_LOOP('',(#221,#222,#223,#224));
#49=EDGE_LOOP('',(#225));
#50=EDGE_LOOP('',(#226));
#51=EDGE_LOOP('',(#227,#228,#229,#230));
#52=EDGE_LOOP('',(#231,#232,#233,#234));
#53=EDGE_LOOP('',(#235,#236,#237,#238));
#54=EDGE_LOOP('',(#239,#240,#241,#242));
#55=EDGE_LOOP('',(#243,#244,#245,#246));
#56=EDGE_LOOP('',(#247,#248,#249,#250));
#57=EDGE_LOOP('',(#251,#252,#253,#254));
#58=EDGE_LOOP('',(#255,#256,#257,#258));
#59=EDGE_LOOP('',(#259,#260,#261,#262));
#60=EDGE_LOOP('',(#263,#264,#265,#266));
#61=EDGE_LOOP('',(#267,#268,#269,#270));
#62=EDGE_LOOP('',(#271,#272,#273,#274));
#63=EDGE_LOOP('',(#275,#276,#277,#278,#279,#280,#281,#282));
#64=EDGE_LOOP('',(#283,#284,#285,#286));
#65=EDGE_LOOP('',(#287));
#66=EDGE_LOOP('',(#288));
#67=LINE('',#463,#93);
#68=LINE('',#466,#94);
#69=LINE('',#469,#95);
#70=LINE('',#471,#96);
#71=LINE('',#472,#97);
#72=LINE('',#475,#98);
#73=LINE('',#479,#99);
#74=LINE('',#483,#100);
#75=LINE('',#489,#101);
#76=LINE('',#492,#102);
#77=LINE('',#499,#103);
#78=LINE('',#503,#104);
#79=LINE('',#504,#105);
#80=LINE('',#507,#106);
#81=LINE('',#511,#107);
#82=LINE('',#512,#108);
#83=LINE('',#515,#109);
#84=LINE('',#519,#110);
#85=LINE('',#522,#111);
#86=LINE('',#525,#112);
#87=LINE('',#526,#113);
#88=LINE('',#530,#114);
#89=LINE('',#532,#115);
#90=LINE('',#536,#116);
#91=LINE('',#540,#117);
#92=LINE('',#542,#118);
#93=VECTOR('',#371,10.);
#94=VECTOR('',#374,10.);
#95=VECTOR('',#377,10.);
#96=VECTOR('',#378,10.);
#97=VECTOR('',#379,10.);
#98=VECTOR('',#382,10.);
#99=VECTOR('',#385,10.);
#100=VECTOR('',#388,10.);
#101=VECTOR('',#393,10.);
#102=VECTOR('',#396,10.);
#103=VECTOR('',#403,10.);
#104=VECTOR('',#408,10.);
#105=VECTOR('',#409,10.);
#106=VECTOR('',#412,10.);
#107=VECTOR('',#417,10.);
#108=VECTOR('',#418,10.);
#109=VECTOR('',#421,10.);
#110=VECTOR('',#426,10.);
#111=VECTOR('',#429,10.);
#112=VECTOR('',#432,10.);
#113=VECTOR('',#433,10.);
#114=VECTOR('',#438,10.);
#115=VECTOR('',#441,10.);
#116=VECTOR('',#446,2.5);
#117=VECTOR('',#451,2.5);
#118=VECTOR('',#454,10.);
#119=CIRCLE('',#334,2.);
#120=CIRCLE('',#335,2.);
#121=CIRCLE('',#338,2.);
#122=CIRCLE('',#339,2.);
#123=CIRCLE('',#340,2.);
#124=CIRCLE('',#341,5.);
#125=CIRCLE('',#342,5.);
#126=CIRCLE('',#343,2.5);
#127=CIRCLE('',#344,2.5);
#128=CIRCLE('',#346,2.);
#129=CIRCLE('',#349,2.);
#130=CIRCLE('',#352,2.);
#131=CIRCLE('',#354,5.);
#132=CIRCLE('',#357,5.);
#133=CIRCLE('',#360,2.5);
#134=CIRCLE('',#362,2.5);
#135=VERTEX_POINT('',#459);
#136=VERTEX_POINT('',#460);
#137=VERTEX_POINT('',#462);
#138=VERTEX_POINT('',#464);
#139=VERTEX_POINT('',#468);
#140=VERTEX_POINT('',#470);
#141=VERTEX_POINT('',#474);
#142=VERTEX_POINT('',#476);
#143=VERTEX_POINT('',#478);
#144=VERTEX_POINT('',#480);
#145=VERTEX_POINT('',#482);
#146=VERTEX_POINT('',#485);
#147=VERTEX_POINT('',#486);
#148=VERTEX_POINT('',#488);
#149=VERTEX_POINT('',#490);
#150=VERTEX_POINT('',#493);
#151=VERTEX_POINT('',#495);
#152=VERTEX_POINT('',#498);
#153=VERTEX_POINT('',#502);
#154=VERTEX_POINT('',#506);
#155=VERTEX_POINT('',#510);
#156=VERTEX_POINT('',#514);
#157=VERTEX_POINT('',#518);
#158=VERTEX_POINT('',#520);
#159=VERTEX_POINT('',#524);
#160=VERTEX_POINT('',#528);
#161=VERTEX_POINT('',#534);
#162=VERTEX_POINT('',#538);
#163=EDGE_CURVE('',#135,#136,#119,.T.);
#164=EDGE_CURVE('',#136,#137,#67,.T.);
#165=EDGE_CURVE('',#137,#138,#120,.T.);
#166=EDGE_CURVE('',#138,#135,#68,.T.);
#167=EDGE_CURVE('',#136,#139,#69,.T.);
#168=EDGE_CURVE('',#140,#139,#70,.T.);
#169=EDGE_CURVE('',#137,#140,#71,.T.);
#170=EDGE_CURVE('',#141,#135,#72,.T.);
#171=EDGE_CURVE('',#142,#141,#121,.T.);
#172=EDGE_CURVE('',#143,#142,#73,.T.);
#173=EDGE_CURVE('',#144,#143,#122,.T.);
#174=EDGE_CURVE('',#145,#144,#74,.T.);
#175=EDGE_CURVE('',#139,#145,#123,.T.);
#176=EDGE_CURVE('',#146,#147,#124,.T.);
#177=EDGE_CURVE('',#147,#148,#75,.T.);
#178=EDGE_CURVE('',#148,#149,#125,.T.);
#179=EDGE_CURVE('',#149,#146,#76,.T.);
#180=EDGE_CURVE('',#150,#150,#126,.T.);
#181=EDGE_CURVE('',#151,#151,#127,.T.);
#182=EDGE_CURVE('',#145,#152,#77,.T.);
#183=EDGE_CURVE('',#152,#140,#128,.T.);
#184=EDGE_CURVE('',#153,#144,#78,.T.);
#185=EDGE_CURVE('',#152,#153,#79,.T.);
#186=EDGE_CURVE('',#143,#154,#80,.T.);
#187=EDGE_CURVE('',#154,#153,#129,.T.);
#188=EDGE_CURVE('',#155,#142,#81,.T.);
#189=EDGE_CURVE('',#154,#155,#82,.T.);
#190=EDGE_CURVE('',#141,#156,#83,.T.);
#191=EDGE_CURVE('',#156,#155,#130,.T.);
#192=EDGE_CURVE('',#157,#146,#84,.T.);
#193=EDGE_CURVE('',#158,#157,#131,.T.);
#194=EDGE_CURVE('',#158,#147,#85,.T.);
#195=EDGE_CURVE('',#159,#158,#86,.T.);
#196=EDGE_CURVE('',#159,#148,#87,.T.);
#197=EDGE_CURVE('',#160,#159,#132,.T.);
#198=EDGE_CURVE('',#160,#149,#88,.T.);
#199=EDGE_CURVE('',#157,#160,#89,.T.);
#200=EDGE_CURVE('',#161,#161,#133,.T.);
#201=EDGE_CURVE('',#161,#150,#90,.T.);
#202=EDGE_CURVE('',#162,#162,#134,.T.);
#203=EDGE_CURVE('',#162,#151,#91,.T.);
#204=EDGE_CURVE('',#156,#138,#92,.T.);
#205=ORIENTED_EDGE('',*,*,#163,.T.);
#206=ORIENTED_EDGE('',*,*,#164,.T.);
#207=ORIENTED_EDGE('',*,*,#165,.T.);
#208=ORIENTED_EDGE('',*,*,#166,.T.);
#209=ORIENTED_EDGE('',*,*,#164,.F.);
#210=ORIENTED_EDGE('',*,*,#167,.T.);
#211=ORIENTED_EDGE('',*,*,#168,.F.);
#212=ORIENTED_EDGE('',*,*,#169,.F.);
#213=ORIENTED_EDGE('',*,*,#163,.F.);
#214=ORIENTED_EDGE('',*,*,#170,.F.);
#215=ORIENTED_EDGE('',*,*,#171,.F.);
#216=ORIENTED_EDGE('',*,*,#172,.F.);
#217=ORIENTED_EDGE('',*,*,#173,.F.);
#218=ORIENTED_EDGE('',*,*,#174,.F.);
#219=ORIENTED_EDGE('',*,*,#175,.F.);
#220=ORIENTED_EDGE('',*,*,#167,.F.);
#221=ORIENTED_EDGE('',*,*,#176,.T.);
#222=ORIENTED_EDGE('',*,*,#177,.T.);
#223=ORIENTED_EDGE('',*,*,#178,.T.);
#224=ORIENTED_EDGE('',*,*,#179,.T.);
#225=ORIENTED_EDGE('',*,*,#180,.T.);
#226=ORIENTED_EDGE('',*,*,#181,.T.);
#227=ORIENTED_EDGE('',*,*,#175,.T.);
#228=ORIENTED_EDGE('',*,*,#182,.T.);
#229=ORIENTED_EDGE('',*,*,#183,.T.);
#230=ORIENTED_EDGE('',*,*,#168,.T.);
#231=ORIENTED_EDGE('',*,*,#182,.F.);
#232=ORIENTED_EDGE('',*,*,#174,.T.);
#233=ORIENTED_EDGE('',*,*,#184,.F.);
#234=ORIENTED_EDGE('',*,*,#185,.F.);
#235=ORIENTED_EDGE('',*,*,#173,.T.);
#236=ORIENTED_EDGE('',*,*,#186,.T.);
#237=ORIENTED_EDGE('',*,*,#187,.T.);
#238=ORIENTED_EDGE('',*,*,#184,.T.);
#239=ORIENTED_EDGE('',*,*,#186,.F.);
#240=ORIENTED_EDGE('',*,*,#172,.T.);
#241=ORIENTED_EDGE('',*,*,#188,.F.);
#242=ORIENTED_EDGE('',*,*,#189,.F.);
#243=ORIENTED_EDGE('',*,*,#171,.T.);
#244=ORIENTED_EDGE('',*,*,#190,.T.);
#245=ORIENTED_EDGE('',*,*,#191,.T.);
#246=ORIENTED_EDGE('',*,*,#188,.T.);
#247=ORIENTED_EDGE('',*,*,#176,.F.);
#248=ORIENTED_EDGE('',*,*,#192,.F.);
#249=ORIENTED_EDGE('',*,*,#193,.F.);
#250=ORIENTED_EDGE('',*,*,#194,.T.);
#251=ORIENTED_EDGE('',*,*,#177,.F.);
#252=ORIENTED_EDGE('',*,*,#194,.F.);
#253=ORIENTED_EDGE('',*,*,#195,.F.);
#254=ORIENTED_EDGE('',*,*,#196,.T.);
#255=ORIENTED_EDGE('',*,*,#178,.F.);
#256=ORIENTED_EDGE('',*,*,#196,.F.);
#257=ORIENTED_EDGE('',*,*,#197,.F.);
#258=ORIENTED_EDGE('',*,*,#198,.T.);
#259=ORIENTED_EDGE('',*,*,#179,.F.);
#260=ORIENTED_EDGE('',*,*,#198,.F.);
#261=ORIENTED_EDGE('',*,*,#199,.F.);
#262=ORIENTED_EDGE('',*,*,#192,.T.);
#263=ORIENTED_EDGE('',*,*,#200,.F.);
#264=ORIENTED_EDGE('',*,*,#201,.T.);
#265=ORIENTED_EDGE('',*,*,#180,.F.);
#266=ORIENTED_EDGE('',*,*,#201,.F.);
#267=ORIENTED_EDGE('',*,*,#202,.F.);
#268=ORIENTED_EDGE('',*,*,#203,.T.);
#269=ORIENTED_EDGE('',*,*,#181,.F.);
#270=ORIENTED_EDGE('',*,*,#203,.F.);
#271=ORIENTED_EDGE('',*,*,#166,.F.);
#272=ORIENTED_EDGE('',*,*,#204,.F.);
#273=ORIENTED_EDGE('',*,*,#190,.F.);
#274=ORIENTED_EDGE('',*,*,#170,.T.);
#275=ORIENTED_EDGE('',*,*,#165,.F.);
#276=ORIENTED_EDGE('',*,*,#169,.T.);
#277=ORIENTED_EDGE('',*,*,#183,.F.);
#278=ORIENTED_EDGE('',*,*,#185,.T.);
#279=ORIENTED_EDGE('',*,*,#187,.F.);
#280=ORIENTED_EDGE('',*,*,#189,.T.);
#281=ORIENTED_EDGE('',*,*,#191,.F.);
#282=ORIENTED_EDGE('',*,*,#204,.T.);
#283=ORIENTED_EDGE('',*,*,#193,.T.);
#284=ORIENTED_EDGE('',*,*,#199,.T.);
#285=ORIENTED_EDGE('',*,*,#197,.T.);
#286=ORIENTED_EDGE('',*,*,#195,.T.);
#287=ORIENTED_EDGE('',*,*,#200,.T.);
#288=ORIENTED_EDGE('',*,*,#202,.T.);
#289=CYLINDRICAL_SURFACE('',#333,2.);
#290=CYLINDRICAL_SURFACE('',#345,2.);
#291=CYLINDRICAL_SURFACE('',#348,2.);
#292=CYLINDRICAL_SURFACE('',#351,2.);
#293=CYLINDRICAL_SURFACE('',#353,5.);
#294=CYLINDRICAL_SURFACE('',#356,5.);
#295=CYLINDRICAL_SURFACE('',#359,2.5);
#296=CYLINDRICAL_SURFACE('',#361,2.5);
#297=ADVANCED_FACE('',(#29),#289,.T.);
#298=ADVANCED_FACE('',(#30),#21,.T.);
#299=ADVANCED_FACE('',(#31,#15,#16,#17),#22,.T.);
#300=ADVANCED_FACE('',(#32),#290,.T.);
#301=ADVANCED_FACE('',(#33),#23,.T.);
#302=ADVANCED_FACE('',(#34),#291,.T.);
#303=ADVANCED_FACE('',(#35),#24,.T.);
#304=ADVANCED_FACE('',(#36),#292,.T.);
#305=ADVANCED_FACE('',(#37),#293,.F.);
#306=ADVANCED_FACE('',(#38),#25,.F.);
#307=ADVANCED_FACE('',(#39),#294,.F.);
#308=ADVANCED_FACE('',(#40),#26,.F.);
#309=ADVANCED_FACE('',(#41),#295,.F.);
#310=ADVANCED_FACE('',(#42),#296,.F.);
#311=ADVANCED_FACE('',(#43),#27,.T.);
#312=ADVANCED_FACE('',(#44,#18,#19,#20),#28,.F.);
#313=CLOSED_SHELL('',(#297,#298,#299,#300,#301,#302,#303,#304,#305,#306,
#307,#308,#309,#310,#311,#312));
#314=DERIVED_UNIT_ELEMENT(#316,1.);
#315=DERIVED_UNIT_ELEMENT(#549,3.);
#316=(
MASS_UNIT()
NAMED_UNIT(*)
SI_UNIT($,.GRAM.)
);
#317=DERIVED_UNIT((#314,#315));
#318=MEASURE_REPRESENTATION_ITEM('density measure',
POSITIVE_RATIO_MEASURE(8.),#317);
#319=PROPERTY_DEFINITION_REPRESENTATION(#324,#321);
#320=PROPERTY_DEFINITION_REPRESENTATION(#325,#322);
#321=REPRESENTATION('material name',(#323),#546);
#322=REPRESENTATION('density',(#318),#546);
#323=DESCRIPTIVE_REPRESENTATION_ITEM('Acier inoxydable',
'Acier inoxydable');
#324=PROPERTY_DEFINITION('material property','material name',#556);
#325=PROPERTY_DEFINITION('material property','density of part',#556);
#326=DATE_TIME_ROLE('creation_date');
#327=APPLIED_DATE_AND_TIME_ASSIGNMENT(#328,#326,(#556));
#328=DATE_AND_TIME(#329,#330);
#329=CALENDAR_DATE(2010,25,11);
#330=LOCAL_TIME(8,31,22.,#331);
#331=COORDINATED_UNIVERSAL_TIME_OFFSET(0,0,.BEHIND.);
#332=AXIS2_PLACEMENT_3D('placement',#457,#365,#366);
#333=AXIS2_PLACEMENT_3D('',#458,#367,#368);
#334=AXIS2_PLACEMENT_3D('',#461,#369,#370);
#335=AXIS2_PLACEMENT_3D('',#465,#372,#373);
#336=AXIS2_PLACEMENT_3D('',#467,#375,#376);
#337=AXIS2_PLACEMENT_3D('',#473,#380,#381);
#338=AXIS2_PLACEMENT_3D('',#477,#383,#384);
#339=AXIS2_PLACEMENT_3D('',#481,#386,#387);
#340=AXIS2_PLACEMENT_3D('',#484,#389,#390);
#341=AXIS2_PLACEMENT_3D('',#487,#391,#392);
#342=AXIS2_PLACEMENT_3D('',#491,#394,#395);
#343=AXIS2_PLACEMENT_3D('',#494,#397,#398);
#344=AXIS2_PLACEMENT_3D('',#496,#399,#400);
#345=AXIS2_PLACEMENT_3D('',#497,#401,#402);
#346=AXIS2_PLACEMENT_3D('',#500,#404,#405);
#347=AXIS2_PLACEMENT_3D('',#501,#406,#407);
#348=AXIS2_PLACEMENT_3D('',#505,#410,#411);
#349=AXIS2_PLACEMENT_3D('',#508,#413,#414);
#350=AXIS2_PLACEMENT_3D('',#509,#415,#416);
#351=AXIS2_PLACEMENT_3D('',#513,#419,#420);
#352=AXIS2_PLACEMENT_3D('',#516,#422,#423);
#353=AXIS2_PLACEMENT_3D('',#517,#424,#425);
#354=AXIS2_PLACEMENT_3D('',#521,#427,#428);
#355=AXIS2_PLACEMENT_3D('',#523,#430,#431);
#356=AXIS2_PLACEMENT_3D('',#527,#434,#435);
#357=AXIS2_PLACEMENT_3D('',#529,#436,#437);
#358=AXIS2_PLACEMENT_3D('',#531,#439,#440);
#359=AXIS2_PLACEMENT_3D('',#533,#442,#443);
#360=AXIS2_PLACEMENT_3D('',#535,#444,#445);
#361=AXIS2_PLACEMENT_3D('',#537,#447,#448);
#362=AXIS2_PLACEMENT_3D('',#539,#449,#450);
#363=AXIS2_PLACEMENT_3D('',#541,#452,#453);
#364=AXIS2_PLACEMENT_3D('',#543,#455,#456);
#365=DIRECTION('axis',(0.,0.,1.));
#366=DIRECTION('refdir',(1.,0.,0.));
#367=DIRECTION('center_axis',(0.,0.,1.));
#368=DIRECTION('ref_axis',(-0.707106781186548,0.707106781186547,0.));
#369=DIRECTION('center_axis',(0.,0.,-1.));
#370=DIRECTION('ref_axis',(-0.707106781186548,0.707106781186547,0.));
#371=DIRECTION('',(0.,0.,-1.));
#372=DIRECTION('center_axis',(0.,0.,1.));
#373=DIRECTION('ref_axis',(-0.707106781186548,0.707106781186547,0.));
#374=DIRECTION('',(0.,0.,1.));
#375=DIRECTION('center_axis',(-2.22044604925031E-16,1.,0.));
#376=DIRECTION('ref_axis',(0.,0.,1.));
#377=DIRECTION('',(1.,2.22044604925031E-16,0.));
#378=DIRECTION('',(0.,0.,1.));
#379=DIRECTION('',(1.,2.22044604925031E-16,0.));
#380=DIRECTION('center_axis',(0.,0.,1.));
#381=DIRECTION('ref_axis',(1.,0.,0.));
#382=DIRECTION('',(0.,1.,0.));
#383=DIRECTION('center_axis',(0.,0.,-1.));
#384=DIRECTION('ref_axis',(-0.707106781186548,-0.707106781186547,0.));
#385=DIRECTION('',(-1.,-2.75875943393783E-17,0.));
#386=DIRECTION('center_axis',(0.,0.,-1.));
#387=DIRECTION('ref_axis',(0.707106781186547,-0.707106781186548,0.));
#388=DIRECTION('',(1.22464679914735E-16,-1.,0.));
#389=DIRECTION('center_axis',(0.,0.,-1.));
#390=DIRECTION('ref_axis',(0.707106781186548,0.707106781186547,0.));
#391=DIRECTION('center_axis',(0.,0.,-1.));
#392=DIRECTION('ref_axis',(0.,-1.,0.));
#393=DIRECTION('',(-1.,-2.22044604925031E-16,0.));
#394=DIRECTION('center_axis',(0.,0.,-1.));
#395=DIRECTION('ref_axis',(0.,1.,0.));
#396=DIRECTION('',(1.,0.,0.));
#397=DIRECTION('center_axis',(0.,0.,-1.));
#398=DIRECTION('ref_axis',(-1.,0.,0.));
#399=DIRECTION('center_axis',(0.,0.,-1.));
#400=DIRECTION('ref_axis',(-1.,0.,0.));
#401=DIRECTION('center_axis',(0.,0.,1.));
#402=DIRECTION('ref_axis',(0.707106781186548,0.707106781186547,0.));
#403=DIRECTION('',(0.,0.,-1.));
#404=DIRECTION('center_axis',(0.,0.,1.));
#405=DIRECTION('ref_axis',(0.707106781186548,0.707106781186547,0.));
#406=DIRECTION('center_axis',(1.,1.22464679914735E-16,0.));
#407=DIRECTION('ref_axis',(0.,0.,-1.));
#408=DIRECTION('',(0.,0.,1.));
#409=DIRECTION('',(1.22464679914735E-16,-1.,0.));
#410=DIRECTION('center_axis',(0.,0.,1.));
#411=DIRECTION('ref_axis',(0.707106781186547,-0.707106781186548,0.));
#412=DIRECTION('',(0.,0.,-1.));
#413=DIRECTION('center_axis',(0.,0.,1.));
#414=DIRECTION('ref_axis',(0.707106781186547,-0.707106781186548,0.));
#415=DIRECTION('center_axis',(2.75875943393783E-17,-1.,0.));
#416=DIRECTION('ref_axis',(0.,0.,-1.));
#417=DIRECTION('',(0.,0.,1.));
#418=DIRECTION('',(-1.,-2.75875943393783E-17,0.));
#419=DIRECTION('center_axis',(0.,0.,1.));
#420=DIRECTION('ref_axis',(-0.707106781186548,-0.707106781186547,0.));
#421=DIRECTION('',(0.,0.,-1.));
#422=DIRECTION('center_axis',(0.,0.,1.));
#423=DIRECTION('ref_axis',(-0.707106781186548,-0.707106781186547,0.));
#424=DIRECTION('center_axis',(0.,0.,1.));
#425=DIRECTION('ref_axis',(0.,-1.,0.));
#426=DIRECTION('',(0.,0.,1.));
#427=DIRECTION('center_axis',(0.,0.,1.));
#428=DIRECTION('ref_axis',(0.,-1.,0.));
#429=DIRECTION('',(0.,0.,1.));
#430=DIRECTION('center_axis',(2.22044604925031E-16,-1.,0.));
#431=DIRECTION('ref_axis',(0.,0.,-1.));
#432=DIRECTION('',(1.,2.22044604925031E-16,0.));
#433=DIRECTION('',(0.,0.,1.));
#434=DIRECTION('center_axis',(0.,0.,1.));
#435=DIRECTION('ref_axis',(0.,1.,0.));
#436=DIRECTION('center_axis',(0.,0.,1.));
#437=DIRECTION('ref_axis',(0.,1.,0.));
#438=DIRECTION('',(0.,0.,1.));
#439=DIRECTION('center_axis',(0.,1.,0.));
#440=DIRECTION('ref_axis',(0.,0.,1.));
#441=DIRECTION('',(-1.,0.,0.));
#442=DIRECTION('center_axis',(0.,0.,1.));
#443=DIRECTION('ref_axis',(-1.,0.,0.));
#444=DIRECTION('center_axis',(0.,0.,1.));
#445=DIRECTION('ref_axis',(-1.,0.,0.));
#446=DIRECTION('',(0.,0.,1.));
#447=DIRECTION('center_axis',(0.,0.,1.));
#448=DIRECTION('ref_axis',(-1.,0.,0.));
#449=DIRECTION('center_axis',(0.,0.,1.));
#450=DIRECTION('ref_axis',(-1.,0.,0.));
#451=DIRECTION('',(0.,0.,1.));
#452=DIRECTION('center_axis',(-1.,0.,0.));
#453=DIRECTION('ref_axis',(0.,0.,1.));
#454=DIRECTION('',(0.,1.,0.));
#455=DIRECTION('center_axis',(0.,0.,1.));
#456=DIRECTION('ref_axis',(1.,0.,0.));
#457=CARTESIAN_POINT('',(0.,0.,0.));
#458=CARTESIAN_POINT('Origin',(-38.,18.,0.));
#459=CARTESIAN_POINT('',(-40.,18.,1.5));
#460=CARTESIAN_POINT('',(-38.,20.,1.5));
#461=CARTESIAN_POINT('Origin',(-38.,18.,1.5));
#462=CARTESIAN_POINT('',(-38.,20.,0.));
#463=CARTESIAN_POINT('',(-38.,20.,0.));
#464=CARTESIAN_POINT('',(-40.,18.,0.));
#465=CARTESIAN_POINT('Origin',(-38.,18.,0.));
#466=CARTESIAN_POINT('',(-40.,18.,0.));
#467=CARTESIAN_POINT('Origin',(-40.,20.,0.));
#468=CARTESIAN_POINT('',(-2.,20.,1.5));
#469=CARTESIAN_POINT('',(-40.,20.,1.5));
#470=CARTESIAN_POINT('',(-2.,20.,0.));
#471=CARTESIAN_POINT('',(-2.,20.,0.));
#472=CARTESIAN_POINT('',(-40.,20.,0.));
#473=CARTESIAN_POINT('Origin',(-20.,10.,1.5));
#474=CARTESIAN_POINT('',(-40.,2.,1.5));
#475=CARTESIAN_POINT('',(-40.,-1.10350377357513E-15,1.5));
#476=CARTESIAN_POINT('',(-38.,-1.04832858489637E-15,1.5));
#477=CARTESIAN_POINT('Origin',(-38.,2.,1.5));
#478=CARTESIAN_POINT('',(-2.,-5.51751886787565E-17,1.5));
#479=CARTESIAN_POINT('',(0.,0.,1.5));
#480=CARTESIAN_POINT('',(-2.44929359829471E-16,2.,1.5));
#481=CARTESIAN_POINT('Origin',(-2.,2.,1.5));
#482=CARTESIAN_POINT('',(-2.20436423846524E-15,18.,1.5));
#483=CARTESIAN_POINT('',(-2.44929359829471E-15,20.,1.5));
#484=CARTESIAN_POINT('Origin',(-2.,18.,1.5));
#485=CARTESIAN_POINT('',(-17.5,15.,1.5));
#486=CARTESIAN_POINT('',(-17.5,5.,1.5));
#487=CARTESIAN_POINT('Origin',(-17.5,10.,1.5));
#488=CARTESIAN_POINT('',(-22.5,5.,1.5));
#489=CARTESIAN_POINT('',(-18.75,5.,1.5));
#490=CARTESIAN_POINT('',(-22.5,15.,1.5));
#491=CARTESIAN_POINT('Origin',(-22.5,10.,1.5));
#492=CARTESIAN_POINT('',(-21.25,15.,1.5));
#493=CARTESIAN_POINT('',(-2.5,10.,1.5));
#494=CARTESIAN_POINT('Origin',(-5.,10.,1.5));
#495=CARTESIAN_POINT('',(-32.5,10.,1.5));
#496=CARTESIAN_POINT('Origin',(-35.,10.,1.5));
#497=CARTESIAN_POINT('Origin',(-2.,18.,0.));
#498=CARTESIAN_POINT('',(-2.20436423846524E-15,18.,0.));
#499=CARTESIAN_POINT('',(-2.22044604925031E-15,18.,0.));
#500=CARTESIAN_POINT('Origin',(-2.,18.,0.));
#501=CARTESIAN_POINT('Origin',(-2.44929359829471E-15,20.,0.));
#502=CARTESIAN_POINT('',(-2.44929359829471E-16,2.,0.));
#503=CARTESIAN_POINT('',(-2.77555756156289E-16,2.,0.));
#504=CARTESIAN_POINT('',(-2.44929359829471E-15,20.,0.));
#505=CARTESIAN_POINT('Origin',(-2.,2.,0.));
#506=CARTESIAN_POINT('',(-2.,-5.51751886787565E-17,0.));
#507=CARTESIAN_POINT('',(-2.,0.,0.));
#508=CARTESIAN_POINT('Origin',(-2.,2.,0.));
#509=CARTESIAN_POINT('Origin',(0.,0.,0.));
#510=CARTESIAN_POINT('',(-38.,-1.04832858489637E-15,0.));
#511=CARTESIAN_POINT('',(-38.,-1.11022302462516E-15,0.));
#512=CARTESIAN_POINT('',(0.,0.,0.));
#513=CARTESIAN_POINT('Origin',(-38.,2.,0.));
#514=CARTESIAN_POINT('',(-40.,2.,0.));
#515=CARTESIAN_POINT('',(-40.,2.,0.));
#516=CARTESIAN_POINT('Origin',(-38.,2.,0.));
#517=CARTESIAN_POINT('Origin',(-17.5,10.,0.));
#518=CARTESIAN_POINT('',(-17.5,15.,0.));
#519=CARTESIAN_POINT('',(-17.5,15.,0.));
#520=CARTESIAN_POINT('',(-17.5,5.,0.));
#521=CARTESIAN_POINT('Origin',(-17.5,10.,0.));
#522=CARTESIAN_POINT('',(-17.5,5.,0.));
#523=CARTESIAN_POINT('Origin',(-17.5,5.,0.));
#524=CARTESIAN_POINT('',(-22.5,5.,0.));
#525=CARTESIAN_POINT('',(-18.75,5.,0.));
#526=CARTESIAN_POINT('',(-22.5,5.,0.));
#527=CARTESIAN_POINT('Origin',(-22.5,10.,0.));
#528=CARTESIAN_POINT('',(-22.5,15.,0.));
#529=CARTESIAN_POINT('Origin',(-22.5,10.,0.));
#530=CARTESIAN_POINT('',(-22.5,15.,0.));
#531=CARTESIAN_POINT('Origin',(-22.5,15.,0.));
#532=CARTESIAN_POINT('',(-21.25,15.,0.));
#533=CARTESIAN_POINT('Origin',(-5.,10.,0.));
#534=CARTESIAN_POINT('',(-2.5,10.,0.));
#535=CARTESIAN_POINT('Origin',(-5.,10.,0.));
#536=CARTESIAN_POINT('',(-2.5,10.,0.));
#537=CARTESIAN_POINT('Origin',(-35.,10.,0.));
#538=CARTESIAN_POINT('',(-32.5,10.,0.));
#539=CARTESIAN_POINT('Origin',(-35.,10.,0.));
#540=CARTESIAN_POINT('',(-32.5,10.,0.));
#541=CARTESIAN_POINT('Origin',(-40.,-1.10350377357513E-15,0.));
#542=CARTESIAN_POINT('',(-40.,-1.10350377357513E-15,0.));
#543=CARTESIAN_POINT('Origin',(-20.,10.,0.));
#544=UNCERTAINTY_MEASURE_WITH_UNIT(LENGTH_MEASURE(0.01),#548,
'DISTANCE_ACCURACY_VALUE',
'Maximum model space distance between geometric entities at asserted c
onnectivities');
#545=UNCERTAINTY_MEASURE_WITH_UNIT(LENGTH_MEASURE(0.01),#548,
'DISTANCE_ACCURACY_VALUE',
'Maximum model space distance between geometric entities at asserted c
onnectivities');
#546=(
GEOMETRIC_REPRESENTATION_CONTEXT(3)
GLOBAL_UNCERTAINTY_ASSIGNED_CONTEXT((#544))
GLOBAL_UNIT_ASSIGNED_CONTEXT((#548,#550,#551))
REPRESENTATION_CONTEXT('','3D')
);
#547=(
GEOMETRIC_REPRESENTATION_CONTEXT(3)
GLOBAL_UNCERTAINTY_ASSIGNED_CONTEXT((#545))
GLOBAL_UNIT_ASSIGNED_CONTEXT((#548,#550,#551))
REPRESENTATION_CONTEXT('','3D')
);
#548=(
LENGTH_UNIT()
NAMED_UNIT(*)
SI_UNIT(.MILLI.,.METRE.)
);
#549=(
LENGTH_UNIT()
NAMED_UNIT(*)
SI_UNIT(.CENTI.,.METRE.)
);
#550=(
NAMED_UNIT(*)
PLANE_ANGLE_UNIT()
SI_UNIT($,.RADIAN.)
);
#551=(
NAMED_UNIT(*)
SI_UNIT($,.STERADIAN.)
SOLID_ANGLE_UNIT()
);
#552=SHAPE_DEFINITION_REPRESENTATION(#553,#554);
#553=PRODUCT_DEFINITION_SHAPE('',$,#556);
#554=SHAPE_REPRESENTATION('',(#332),#546);
#555=PRODUCT_DEFINITION_CONTEXT('part definition',#560,'design');
#556=PRODUCT_DEFINITION('21625','21625',#557,#555);
#557=PRODUCT_DEFINITION_FORMATION('',$,#562);
#558=PRODUCT_RELATED_PRODUCT_CATEGORY('21625','21625',(#562));
#559=APPLICATION_PROTOCOL_DEFINITION('international standard',
'automotive_design',2009,#560);
#560=APPLICATION_CONTEXT(
'Core Data for Automotive Mechanical Design Process');
#561=PRODUCT_CONTEXT('part definition',#560,'mechanical');
#562=PRODUCT('21625','21625',$,(#561));
#563=PRESENTATION_STYLE_ASSIGNMENT((#564));
#564=SURFACE_STYLE_USAGE(.BOTH.,#567);
#565=SURFACE_STYLE_RENDERING_WITH_PROPERTIES($,#571,(#566));
#566=SURFACE_STYLE_TRANSPARENT(0.);
#567=SURFACE_SIDE_STYLE('',(#568,#565));
#568=SURFACE_STYLE_FILL_AREA(#569);
#569=FILL_AREA_STYLE('',(#570));
#570=FILL_AREA_STYLE_COLOUR('',#571);
#571=COLOUR_RGB('',0.949019607843137,0.925490196078431,0.933333333333333);
ENDSEC;
END-ISO-10303-21;
