ISO-10303-21;
HEADER;
/* Generated by software containing ST-Developer
 * from STEP Tools, Inc. (www.steptools.com) 
 */

FILE_DESCRIPTION(
/* description */ (''),
/* implementation_level */ '2;1');

FILE_NAME(
/* name */ 'C:\\Users\\Dbari\\Desktop\\1316GE.stp',
/* time_stamp */ '2020-12-22T16:01:00+01:00',
/* author */ ('DBARI'),
/* organization */ (''),
/* preprocessor_version */ 'ST-DEVELOPER v18.1',
/* originating_system */ 'Autodesk Inventor 2021',
/* authorisation */ '');

FILE_SCHEMA (('AUTOMOTIVE_DESIGN { 1 0 10303 214 3 1 1 }'));
ENDSEC;

DATA;
#10=MECHANICAL_DESIGN_GEOMETRIC_PRESENTATION_REPRESENTATION('',(#13),#579);
#11=SHAPE_REPRESENTATION_RELATIONSHIP('SRR','None',#586,#12);
#12=ADVANCED_BREP_SHAPE_REPRESENTATION('',(#14),#578);
#13=STYLED_ITEM('',(#595),#14);
#14=MANIFOLD_SOLID_BREP('Solide3',#339);
#15=FACE_BOUND('',#74,.T.);
#16=FACE_BOUND('',#75,.T.);
#17=FACE_BOUND('',#76,.T.);
#18=FACE_BOUND('',#77,.T.);
#19=FACE_BOUND('',#78,.T.);
#20=FACE_BOUND('',#80,.T.);
#21=FACE_BOUND('',#81,.T.);
#22=FACE_BOUND('',#82,.T.);
#23=FACE_BOUND('',#83,.T.);
#24=FACE_BOUND('',#84,.T.);
#25=PLANE('',#373);
#26=PLANE('',#377);
#27=PLANE('',#381);
#28=PLANE('',#382);
#29=PLANE('',#383);
#30=PLANE('',#384);
#31=PLANE('',#385);
#32=PLANE('',#386);
#33=CYLINDRICAL_SURFACE('',#356,2.75);
#34=CYLINDRICAL_SURFACE('',#361,2.75);
#35=CYLINDRICAL_SURFACE('',#366,2.75);
#36=CYLINDRICAL_SURFACE('',#371,2.75);
#37=CYLINDRICAL_SURFACE('',#374,8.25);
#38=CYLINDRICAL_SURFACE('',#378,8.25);
#39=FACE_OUTER_BOUND('',#57,.T.);
#40=FACE_OUTER_BOUND('',#58,.T.);
#41=FACE_OUTER_BOUND('',#59,.T.);
#42=FACE_OUTER_BOUND('',#60,.T.);
#43=FACE_OUTER_BOUND('',#61,.T.);
#44=FACE_OUTER_BOUND('',#62,.T.);
#45=FACE_OUTER_BOUND('',#63,.T.);
#46=FACE_OUTER_BOUND('',#64,.T.);
#47=FACE_OUTER_BOUND('',#65,.T.);
#48=FACE_OUTER_BOUND('',#66,.T.);
#49=FACE_OUTER_BOUND('',#67,.T.);
#50=FACE_OUTER_BOUND('',#68,.T.);
#51=FACE_OUTER_BOUND('',#69,.T.);
#52=FACE_OUTER_BOUND('',#70,.T.);
#53=FACE_OUTER_BOUND('',#71,.T.);
#54=FACE_OUTER_BOUND('',#72,.T.);
#55=FACE_OUTER_BOUND('',#73,.T.);
#56=FACE_OUTER_BOUND('',#79,.T.);
#57=EDGE_LOOP('',(#229,#230,#231,#232));
#58=EDGE_LOOP('',(#233,#234,#235,#236));
#59=EDGE_LOOP('',(#237,#238,#239,#240));
#60=EDGE_LOOP('',(#241,#242,#243,#244));
#61=EDGE_LOOP('',(#245,#246,#247,#248));
#62=EDGE_LOOP('',(#249,#250,#251,#252));
#63=EDGE_LOOP('',(#253,#254,#255,#256));
#64=EDGE_LOOP('',(#257,#258,#259,#260));
#65=EDGE_LOOP('',(#261,#262,#263,#264));
#66=EDGE_LOOP('',(#265,#266,#267,#268));
#67=EDGE_LOOP('',(#269,#270,#271,#272));
#68=EDGE_LOOP('',(#273,#274,#275,#276));
#69=EDGE_LOOP('',(#277,#278,#279,#280));
#70=EDGE_LOOP('',(#281,#282,#283,#284));
#71=EDGE_LOOP('',(#285,#286,#287,#288));
#72=EDGE_LOOP('',(#289,#290,#291,#292));
#73=EDGE_LOOP('',(#293,#294,#295,#296));
#74=EDGE_LOOP('',(#297));
#75=EDGE_LOOP('',(#298));
#76=EDGE_LOOP('',(#299));
#77=EDGE_LOOP('',(#300));
#78=EDGE_LOOP('',(#301,#302,#303,#304));
#79=EDGE_LOOP('',(#305,#306,#307,#308));
#80=EDGE_LOOP('',(#309));
#81=EDGE_LOOP('',(#310));
#82=EDGE_LOOP('',(#311));
#83=EDGE_LOOP('',(#312));
#84=EDGE_LOOP('',(#313,#314,#315,#316));
#85=LINE('',#490,#113);
#86=LINE('',#494,#114);
#87=LINE('',#500,#115);
#88=LINE('',#504,#116);
#89=LINE('',#510,#117);
#90=LINE('',#514,#118);
#91=LINE('',#520,#119);
#92=LINE('',#524,#120);
#93=LINE('',#529,#121);
#94=LINE('',#531,#122);
#95=LINE('',#533,#123);
#96=LINE('',#534,#124);
#97=LINE('',#540,#125);
#98=LINE('',#543,#126);
#99=LINE('',#545,#127);
#100=LINE('',#546,#128);
#101=LINE('',#553,#129);
#102=LINE('',#555,#130);
#103=LINE('',#557,#131);
#104=LINE('',#558,#132);
#105=LINE('',#561,#133);
#106=LINE('',#563,#134);
#107=LINE('',#564,#135);
#108=LINE('',#567,#136);
#109=LINE('',#569,#137);
#110=LINE('',#570,#138);
#111=LINE('',#572,#139);
#112=LINE('',#573,#140);
#113=VECTOR('',#393,3.875);
#114=VECTOR('',#398,2.75);
#115=VECTOR('',#405,3.875);
#116=VECTOR('',#410,2.75);
#117=VECTOR('',#417,3.875);
#118=VECTOR('',#422,2.75);
#119=VECTOR('',#429,3.875);
#120=VECTOR('',#434,2.75);
#121=VECTOR('',#439,10.);
#122=VECTOR('',#440,10.);
#123=VECTOR('',#441,10.);
#124=VECTOR('',#442,10.);
#125=VECTOR('',#449,10.);
#126=VECTOR('',#452,10.);
#127=VECTOR('',#453,10.);
#128=VECTOR('',#454,10.);
#129=VECTOR('',#463,10.);
#130=VECTOR('',#464,10.);
#131=VECTOR('',#465,10.);
#132=VECTOR('',#466,10.);
#133=VECTOR('',#469,10.);
#134=VECTOR('',#470,10.);
#135=VECTOR('',#471,10.);
#136=VECTOR('',#474,10.);
#137=VECTOR('',#475,10.);
#138=VECTOR('',#476,10.);
#139=VECTOR('',#479,10.);
#140=VECTOR('',#480,10.);
#141=CIRCLE('',#354,5.);
#142=CIRCLE('',#355,2.75);
#143=CIRCLE('',#357,2.75);
#144=CIRCLE('',#359,5.);
#145=CIRCLE('',#360,2.75);
#146=CIRCLE('',#362,2.75);
#147=CIRCLE('',#364,5.);
#148=CIRCLE('',#365,2.75);
#149=CIRCLE('',#367,2.75);
#150=CIRCLE('',#369,5.);
#151=CIRCLE('',#370,2.75);
#152=CIRCLE('',#372,2.75);
#153=CIRCLE('',#375,8.25);
#154=CIRCLE('',#376,8.25);
#155=CIRCLE('',#379,8.25);
#156=CIRCLE('',#380,8.25);
#157=VERTEX_POINT('',#487);
#158=VERTEX_POINT('',#489);
#159=VERTEX_POINT('',#493);
#160=VERTEX_POINT('',#497);
#161=VERTEX_POINT('',#499);
#162=VERTEX_POINT('',#503);
#163=VERTEX_POINT('',#507);
#164=VERTEX_POINT('',#509);
#165=VERTEX_POINT('',#513);
#166=VERTEX_POINT('',#517);
#167=VERTEX_POINT('',#519);
#168=VERTEX_POINT('',#523);
#169=VERTEX_POINT('',#527);
#170=VERTEX_POINT('',#528);
#171=VERTEX_POINT('',#530);
#172=VERTEX_POINT('',#532);
#173=VERTEX_POINT('',#536);
#174=VERTEX_POINT('',#538);
#175=VERTEX_POINT('',#542);
#176=VERTEX_POINT('',#544);
#177=VERTEX_POINT('',#551);
#178=VERTEX_POINT('',#552);
#179=VERTEX_POINT('',#554);
#180=VERTEX_POINT('',#556);
#181=VERTEX_POINT('',#560);
#182=VERTEX_POINT('',#562);
#183=VERTEX_POINT('',#566);
#184=VERTEX_POINT('',#568);
#185=EDGE_CURVE('',#157,#157,#141,.T.);
#186=EDGE_CURVE('',#157,#158,#85,.T.);
#187=EDGE_CURVE('',#158,#158,#142,.T.);
#188=EDGE_CURVE('',#158,#159,#86,.T.);
#189=EDGE_CURVE('',#159,#159,#143,.T.);
#190=EDGE_CURVE('',#160,#160,#144,.T.);
#191=EDGE_CURVE('',#160,#161,#87,.T.);
#192=EDGE_CURVE('',#161,#161,#145,.T.);
#193=EDGE_CURVE('',#161,#162,#88,.T.);
#194=EDGE_CURVE('',#162,#162,#146,.T.);
#195=EDGE_CURVE('',#163,#163,#147,.T.);
#196=EDGE_CURVE('',#163,#164,#89,.T.);
#197=EDGE_CURVE('',#164,#164,#148,.T.);
#198=EDGE_CURVE('',#164,#165,#90,.T.);
#199=EDGE_CURVE('',#165,#165,#149,.T.);
#200=EDGE_CURVE('',#166,#166,#150,.T.);
#201=EDGE_CURVE('',#166,#167,#91,.T.);
#202=EDGE_CURVE('',#167,#167,#151,.T.);
#203=EDGE_CURVE('',#167,#168,#92,.T.);
#204=EDGE_CURVE('',#168,#168,#152,.T.);
#205=EDGE_CURVE('',#169,#170,#93,.T.);
#206=EDGE_CURVE('',#171,#169,#94,.T.);
#207=EDGE_CURVE('',#172,#171,#95,.T.);
#208=EDGE_CURVE('',#172,#170,#96,.T.);
#209=EDGE_CURVE('',#170,#173,#153,.T.);
#210=EDGE_CURVE('',#174,#172,#154,.T.);
#211=EDGE_CURVE('',#174,#173,#97,.T.);
#212=EDGE_CURVE('',#173,#175,#98,.T.);
#213=EDGE_CURVE('',#176,#174,#99,.T.);
#214=EDGE_CURVE('',#176,#175,#100,.T.);
#215=EDGE_CURVE('',#175,#169,#155,.T.);
#216=EDGE_CURVE('',#171,#176,#156,.T.);
#217=EDGE_CURVE('',#177,#178,#101,.T.);
#218=EDGE_CURVE('',#179,#178,#102,.T.);
#219=EDGE_CURVE('',#180,#179,#103,.T.);
#220=EDGE_CURVE('',#180,#177,#104,.T.);
#221=EDGE_CURVE('',#178,#181,#105,.T.);
#222=EDGE_CURVE('',#182,#181,#106,.T.);
#223=EDGE_CURVE('',#179,#182,#107,.T.);
#224=EDGE_CURVE('',#181,#183,#108,.T.);
#225=EDGE_CURVE('',#184,#183,#109,.T.);
#226=EDGE_CURVE('',#182,#184,#110,.T.);
#227=EDGE_CURVE('',#183,#177,#111,.T.);
#228=EDGE_CURVE('',#184,#180,#112,.T.);
#229=ORIENTED_EDGE('',*,*,#185,.F.);
#230=ORIENTED_EDGE('',*,*,#186,.T.);
#231=ORIENTED_EDGE('',*,*,#187,.F.);
#232=ORIENTED_EDGE('',*,*,#186,.F.);
#233=ORIENTED_EDGE('',*,*,#187,.T.);
#234=ORIENTED_EDGE('',*,*,#188,.T.);
#235=ORIENTED_EDGE('',*,*,#189,.F.);
#236=ORIENTED_EDGE('',*,*,#188,.F.);
#237=ORIENTED_EDGE('',*,*,#190,.F.);
#238=ORIENTED_EDGE('',*,*,#191,.T.);
#239=ORIENTED_EDGE('',*,*,#192,.F.);
#240=ORIENTED_EDGE('',*,*,#191,.F.);
#241=ORIENTED_EDGE('',*,*,#192,.T.);
#242=ORIENTED_EDGE('',*,*,#193,.T.);
#243=ORIENTED_EDGE('',*,*,#194,.F.);
#244=ORIENTED_EDGE('',*,*,#193,.F.);
#245=ORIENTED_EDGE('',*,*,#195,.F.);
#246=ORIENTED_EDGE('',*,*,#196,.T.);
#247=ORIENTED_EDGE('',*,*,#197,.F.);
#248=ORIENTED_EDGE('',*,*,#196,.F.);
#249=ORIENTED_EDGE('',*,*,#197,.T.);
#250=ORIENTED_EDGE('',*,*,#198,.T.);
#251=ORIENTED_EDGE('',*,*,#199,.F.);
#252=ORIENTED_EDGE('',*,*,#198,.F.);
#253=ORIENTED_EDGE('',*,*,#200,.F.);
#254=ORIENTED_EDGE('',*,*,#201,.T.);
#255=ORIENTED_EDGE('',*,*,#202,.F.);
#256=ORIENTED_EDGE('',*,*,#201,.F.);
#257=ORIENTED_EDGE('',*,*,#202,.T.);
#258=ORIENTED_EDGE('',*,*,#203,.T.);
#259=ORIENTED_EDGE('',*,*,#204,.F.);
#260=ORIENTED_EDGE('',*,*,#203,.F.);
#261=ORIENTED_EDGE('',*,*,#205,.F.);
#262=ORIENTED_EDGE('',*,*,#206,.F.);
#263=ORIENTED_EDGE('',*,*,#207,.F.);
#264=ORIENTED_EDGE('',*,*,#208,.T.);
#265=ORIENTED_EDGE('',*,*,#209,.F.);
#266=ORIENTED_EDGE('',*,*,#208,.F.);
#267=ORIENTED_EDGE('',*,*,#210,.F.);
#268=ORIENTED_EDGE('',*,*,#211,.T.);
#269=ORIENTED_EDGE('',*,*,#212,.F.);
#270=ORIENTED_EDGE('',*,*,#211,.F.);
#271=ORIENTED_EDGE('',*,*,#213,.F.);
#272=ORIENTED_EDGE('',*,*,#214,.T.);
#273=ORIENTED_EDGE('',*,*,#215,.F.);
#274=ORIENTED_EDGE('',*,*,#214,.F.);
#275=ORIENTED_EDGE('',*,*,#216,.F.);
#276=ORIENTED_EDGE('',*,*,#206,.T.);
#277=ORIENTED_EDGE('',*,*,#217,.T.);
#278=ORIENTED_EDGE('',*,*,#218,.F.);
#279=ORIENTED_EDGE('',*,*,#219,.F.);
#280=ORIENTED_EDGE('',*,*,#220,.T.);
#281=ORIENTED_EDGE('',*,*,#221,.T.);
#282=ORIENTED_EDGE('',*,*,#222,.F.);
#283=ORIENTED_EDGE('',*,*,#223,.F.);
#284=ORIENTED_EDGE('',*,*,#218,.T.);
#285=ORIENTED_EDGE('',*,*,#224,.T.);
#286=ORIENTED_EDGE('',*,*,#225,.F.);
#287=ORIENTED_EDGE('',*,*,#226,.F.);
#288=ORIENTED_EDGE('',*,*,#222,.T.);
#289=ORIENTED_EDGE('',*,*,#227,.T.);
#290=ORIENTED_EDGE('',*,*,#220,.F.);
#291=ORIENTED_EDGE('',*,*,#228,.F.);
#292=ORIENTED_EDGE('',*,*,#225,.T.);
#293=ORIENTED_EDGE('',*,*,#217,.F.);
#294=ORIENTED_EDGE('',*,*,#227,.F.);
#295=ORIENTED_EDGE('',*,*,#224,.F.);
#296=ORIENTED_EDGE('',*,*,#221,.F.);
#297=ORIENTED_EDGE('',*,*,#185,.T.);
#298=ORIENTED_EDGE('',*,*,#190,.T.);
#299=ORIENTED_EDGE('',*,*,#195,.T.);
#300=ORIENTED_EDGE('',*,*,#200,.T.);
#301=ORIENTED_EDGE('',*,*,#213,.T.);
#302=ORIENTED_EDGE('',*,*,#210,.T.);
#303=ORIENTED_EDGE('',*,*,#207,.T.);
#304=ORIENTED_EDGE('',*,*,#216,.T.);
#305=ORIENTED_EDGE('',*,*,#228,.T.);
#306=ORIENTED_EDGE('',*,*,#219,.T.);
#307=ORIENTED_EDGE('',*,*,#223,.T.);
#308=ORIENTED_EDGE('',*,*,#226,.T.);
#309=ORIENTED_EDGE('',*,*,#189,.T.);
#310=ORIENTED_EDGE('',*,*,#194,.T.);
#311=ORIENTED_EDGE('',*,*,#199,.T.);
#312=ORIENTED_EDGE('',*,*,#204,.T.);
#313=ORIENTED_EDGE('',*,*,#212,.T.);
#314=ORIENTED_EDGE('',*,*,#215,.T.);
#315=ORIENTED_EDGE('',*,*,#205,.T.);
#316=ORIENTED_EDGE('',*,*,#209,.T.);
#317=CONICAL_SURFACE('',#353,3.875,0.785398163397448);
#318=CONICAL_SURFACE('',#358,3.875,0.785398163397448);
#319=CONICAL_SURFACE('',#363,3.875,0.785398163397448);
#320=CONICAL_SURFACE('',#368,3.875,0.785398163397448);
#321=ADVANCED_FACE('',(#39),#317,.F.);
#322=ADVANCED_FACE('',(#40),#33,.F.);
#323=ADVANCED_FACE('',(#41),#318,.F.);
#324=ADVANCED_FACE('',(#42),#34,.F.);
#325=ADVANCED_FACE('',(#43),#319,.F.);
#326=ADVANCED_FACE('',(#44),#35,.F.);
#327=ADVANCED_FACE('',(#45),#320,.F.);
#328=ADVANCED_FACE('',(#46),#36,.F.);
#329=ADVANCED_FACE('',(#47),#25,.F.);
#330=ADVANCED_FACE('',(#48),#37,.F.);
#331=ADVANCED_FACE('',(#49),#26,.F.);
#332=ADVANCED_FACE('',(#50),#38,.F.);
#333=ADVANCED_FACE('',(#51),#27,.T.);
#334=ADVANCED_FACE('',(#52),#28,.T.);
#335=ADVANCED_FACE('',(#53),#29,.T.);
#336=ADVANCED_FACE('',(#54),#30,.T.);
#337=ADVANCED_FACE('',(#55,#15,#16,#17,#18,#19),#31,.T.);
#338=ADVANCED_FACE('',(#56,#20,#21,#22,#23,#24),#32,.F.);
#339=CLOSED_SHELL('',(#321,#322,#323,#324,#325,#326,#327,#328,#329,#330,
#331,#332,#333,#334,#335,#336,#337,#338));
#340=DERIVED_UNIT_ELEMENT(#342,1.);
#341=DERIVED_UNIT_ELEMENT(#581,-3.);
#342=(
MASS_UNIT()
NAMED_UNIT(*)
SI_UNIT($,.GRAM.)
);
#343=DERIVED_UNIT((#340,#341));
#344=MEASURE_REPRESENTATION_ITEM('density measure',
POSITIVE_RATIO_MEASURE(1.),#343);
#345=PROPERTY_DEFINITION_REPRESENTATION(#350,#347);
#346=PROPERTY_DEFINITION_REPRESENTATION(#351,#348);
#347=REPRESENTATION('material name',(#349),#578);
#348=REPRESENTATION('density',(#344),#578);
#349=DESCRIPTIVE_REPRESENTATION_ITEM('G\X\E9n\X\E9rique','G\X\E9n\X\E9
rique');
#350=PROPERTY_DEFINITION('material property','material name',#588);
#351=PROPERTY_DEFINITION('material property','density of part',#588);
#352=AXIS2_PLACEMENT_3D('placement',#485,#387,#388);
#353=AXIS2_PLACEMENT_3D('',#486,#389,#390);
#354=AXIS2_PLACEMENT_3D('',#488,#391,#392);
#355=AXIS2_PLACEMENT_3D('',#491,#394,#395);
#356=AXIS2_PLACEMENT_3D('',#492,#396,#397);
#357=AXIS2_PLACEMENT_3D('',#495,#399,#400);
#358=AXIS2_PLACEMENT_3D('',#496,#401,#402);
#359=AXIS2_PLACEMENT_3D('',#498,#403,#404);
#360=AXIS2_PLACEMENT_3D('',#501,#406,#407);
#361=AXIS2_PLACEMENT_3D('',#502,#408,#409);
#362=AXIS2_PLACEMENT_3D('',#505,#411,#412);
#363=AXIS2_PLACEMENT_3D('',#506,#413,#414);
#364=AXIS2_PLACEMENT_3D('',#508,#415,#416);
#365=AXIS2_PLACEMENT_3D('',#511,#418,#419);
#366=AXIS2_PLACEMENT_3D('',#512,#420,#421);
#367=AXIS2_PLACEMENT_3D('',#515,#423,#424);
#368=AXIS2_PLACEMENT_3D('',#516,#425,#426);
#369=AXIS2_PLACEMENT_3D('',#518,#427,#428);
#370=AXIS2_PLACEMENT_3D('',#521,#430,#431);
#371=AXIS2_PLACEMENT_3D('',#522,#432,#433);
#372=AXIS2_PLACEMENT_3D('',#525,#435,#436);
#373=AXIS2_PLACEMENT_3D('',#526,#437,#438);
#374=AXIS2_PLACEMENT_3D('',#535,#443,#444);
#375=AXIS2_PLACEMENT_3D('',#537,#445,#446);
#376=AXIS2_PLACEMENT_3D('',#539,#447,#448);
#377=AXIS2_PLACEMENT_3D('',#541,#450,#451);
#378=AXIS2_PLACEMENT_3D('',#547,#455,#456);
#379=AXIS2_PLACEMENT_3D('',#548,#457,#458);
#380=AXIS2_PLACEMENT_3D('',#549,#459,#460);
#381=AXIS2_PLACEMENT_3D('',#550,#461,#462);
#382=AXIS2_PLACEMENT_3D('',#559,#467,#468);
#383=AXIS2_PLACEMENT_3D('',#565,#472,#473);
#384=AXIS2_PLACEMENT_3D('',#571,#477,#478);
#385=AXIS2_PLACEMENT_3D('',#574,#481,#482);
#386=AXIS2_PLACEMENT_3D('',#575,#483,#484);
#387=DIRECTION('axis',(0.,0.,1.));
#388=DIRECTION('refdir',(1.,0.,0.));
#389=DIRECTION('center_axis',(0.,0.,1.));
#390=DIRECTION('ref_axis',(1.,0.,0.));
#391=DIRECTION('center_axis',(0.,0.,-1.));
#392=DIRECTION('ref_axis',(1.,0.,0.));
#393=DIRECTION('',(0.707106781186547,8.65956056235493E-17,-0.707106781186548));
#394=DIRECTION('center_axis',(0.,0.,1.));
#395=DIRECTION('ref_axis',(1.,0.,0.));
#396=DIRECTION('center_axis',(0.,0.,1.));
#397=DIRECTION('ref_axis',(1.,0.,0.));
#398=DIRECTION('',(0.,0.,-1.));
#399=DIRECTION('center_axis',(0.,0.,1.));
#400=DIRECTION('ref_axis',(1.,0.,0.));
#401=DIRECTION('center_axis',(0.,0.,1.));
#402=DIRECTION('ref_axis',(1.,0.,0.));
#403=DIRECTION('center_axis',(0.,0.,-1.));
#404=DIRECTION('ref_axis',(1.,0.,0.));
#405=DIRECTION('',(0.707106781186547,8.65956056235493E-17,-0.707106781186548));
#406=DIRECTION('center_axis',(0.,0.,1.));
#407=DIRECTION('ref_axis',(1.,0.,0.));
#408=DIRECTION('center_axis',(0.,0.,1.));
#409=DIRECTION('ref_axis',(1.,0.,0.));
#410=DIRECTION('',(0.,0.,-1.));
#411=DIRECTION('center_axis',(0.,0.,1.));
#412=DIRECTION('ref_axis',(1.,0.,0.));
#413=DIRECTION('center_axis',(0.,0.,1.));
#414=DIRECTION('ref_axis',(1.,0.,0.));
#415=DIRECTION('center_axis',(0.,0.,-1.));
#416=DIRECTION('ref_axis',(1.,0.,0.));
#417=DIRECTION('',(0.707106781186547,8.65956056235493E-17,-0.707106781186548));
#418=DIRECTION('center_axis',(0.,0.,1.));
#419=DIRECTION('ref_axis',(1.,0.,0.));
#420=DIRECTION('center_axis',(0.,0.,1.));
#421=DIRECTION('ref_axis',(1.,0.,0.));
#422=DIRECTION('',(0.,0.,-1.));
#423=DIRECTION('center_axis',(0.,0.,1.));
#424=DIRECTION('ref_axis',(1.,0.,0.));
#425=DIRECTION('center_axis',(0.,0.,1.));
#426=DIRECTION('ref_axis',(1.,0.,0.));
#427=DIRECTION('center_axis',(0.,0.,-1.));
#428=DIRECTION('ref_axis',(1.,0.,0.));
#429=DIRECTION('',(0.707106781186547,8.65956056235493E-17,-0.707106781186548));
#430=DIRECTION('center_axis',(0.,0.,1.));
#431=DIRECTION('ref_axis',(1.,0.,0.));
#432=DIRECTION('center_axis',(0.,0.,1.));
#433=DIRECTION('ref_axis',(1.,0.,0.));
#434=DIRECTION('',(0.,0.,-1.));
#435=DIRECTION('center_axis',(0.,0.,1.));
#436=DIRECTION('ref_axis',(1.,0.,0.));
#437=DIRECTION('center_axis',(0.,-1.,0.));
#438=DIRECTION('ref_axis',(-1.,0.,0.));
#439=DIRECTION('',(1.,0.,0.));
#440=DIRECTION('',(0.,0.,-1.));
#441=DIRECTION('',(-1.,0.,0.));
#442=DIRECTION('',(0.,0.,-1.));
#443=DIRECTION('center_axis',(0.,0.,-1.));
#444=DIRECTION('ref_axis',(-1.34572487833352E-16,1.,0.));
#445=DIRECTION('center_axis',(0.,0.,1.));
#446=DIRECTION('ref_axis',(-1.34572487833352E-16,1.,0.));
#447=DIRECTION('center_axis',(0.,0.,-1.));
#448=DIRECTION('ref_axis',(-1.34572487833352E-16,1.,0.));
#449=DIRECTION('',(0.,0.,-1.));
#450=DIRECTION('center_axis',(-2.22044604925031E-16,1.,0.));
#451=DIRECTION('ref_axis',(1.,2.22044604925031E-16,0.));
#452=DIRECTION('',(-1.,-2.22044604925031E-16,0.));
#453=DIRECTION('',(1.,2.22044604925031E-16,0.));
#454=DIRECTION('',(0.,0.,-1.));
#455=DIRECTION('center_axis',(0.,0.,-1.));
#456=DIRECTION('ref_axis',(0.,-1.,0.));
#457=DIRECTION('center_axis',(0.,0.,1.));
#458=DIRECTION('ref_axis',(0.,-1.,0.));
#459=DIRECTION('center_axis',(0.,0.,-1.));
#460=DIRECTION('ref_axis',(0.,-1.,0.));
#461=DIRECTION('center_axis',(1.,2.53765262771464E-16,0.));
#462=DIRECTION('ref_axis',(0.,0.,-1.));
#463=DIRECTION('',(2.53765262771464E-16,-1.,0.));
#464=DIRECTION('',(0.,0.,1.));
#465=DIRECTION('',(2.53765262771464E-16,-1.,0.));
#466=DIRECTION('',(0.,0.,1.));
#467=DIRECTION('center_axis',(1.36642833800019E-16,-1.,0.));
#468=DIRECTION('ref_axis',(0.,0.,-1.));
#469=DIRECTION('',(-1.,-1.36642833800019E-16,0.));
#470=DIRECTION('',(0.,0.,1.));
#471=DIRECTION('',(-1.,-1.36642833800019E-16,0.));
#472=DIRECTION('center_axis',(-1.,0.,0.));
#473=DIRECTION('ref_axis',(0.,0.,1.));
#474=DIRECTION('',(0.,1.,0.));
#475=DIRECTION('',(0.,0.,1.));
#476=DIRECTION('',(0.,1.,0.));
#477=DIRECTION('center_axis',(-1.36642833800019E-16,1.,0.));
#478=DIRECTION('ref_axis',(0.,0.,1.));
#479=DIRECTION('',(1.,1.36642833800019E-16,0.));
#480=DIRECTION('',(1.,1.36642833800019E-16,0.));
#481=DIRECTION('center_axis',(0.,0.,1.));
#482=DIRECTION('ref_axis',(1.,0.,0.));
#483=DIRECTION('center_axis',(0.,0.,1.));
#484=DIRECTION('ref_axis',(1.,0.,0.));
#485=CARTESIAN_POINT('',(0.,0.,0.));
#486=CARTESIAN_POINT('Origin',(25.,-10.,0.375));
#487=CARTESIAN_POINT('',(20.,-10.,1.5));
#488=CARTESIAN_POINT('Origin',(25.,-10.,1.5));
#489=CARTESIAN_POINT('',(22.25,-10.,-0.750000000000004));
#490=CARTESIAN_POINT('',(21.125,-10.,0.375));
#491=CARTESIAN_POINT('Origin',(25.,-10.,-0.750000000000005));
#492=CARTESIAN_POINT('Origin',(25.,-10.,-72.3850458482635));
#493=CARTESIAN_POINT('',(22.25,-10.,-1.5));
#494=CARTESIAN_POINT('',(22.25,-10.,-72.3850458482635));
#495=CARTESIAN_POINT('Origin',(25.,-10.,-1.5));
#496=CARTESIAN_POINT('Origin',(-25.,10.,0.375));
#497=CARTESIAN_POINT('',(-30.,10.,1.5));
#498=CARTESIAN_POINT('Origin',(-25.,10.,1.5));
#499=CARTESIAN_POINT('',(-27.75,10.,-0.750000000000004));
#500=CARTESIAN_POINT('',(-28.875,10.,0.375));
#501=CARTESIAN_POINT('Origin',(-25.,10.,-0.750000000000005));
#502=CARTESIAN_POINT('Origin',(-25.,10.,-72.3850458482635));
#503=CARTESIAN_POINT('',(-27.75,10.,-1.5));
#504=CARTESIAN_POINT('',(-27.75,10.,-72.3850458482635));
#505=CARTESIAN_POINT('Origin',(-25.,10.,-1.5));
#506=CARTESIAN_POINT('Origin',(25.,10.,0.375));
#507=CARTESIAN_POINT('',(20.,10.,1.5));
#508=CARTESIAN_POINT('Origin',(25.,10.,1.5));
#509=CARTESIAN_POINT('',(22.25,10.,-0.750000000000004));
#510=CARTESIAN_POINT('',(21.125,10.,0.375));
#511=CARTESIAN_POINT('Origin',(25.,10.,-0.750000000000005));
#512=CARTESIAN_POINT('Origin',(25.,10.,-72.3850458482635));
#513=CARTESIAN_POINT('',(22.25,10.,-1.5));
#514=CARTESIAN_POINT('',(22.25,10.,-72.3850458482635));
#515=CARTESIAN_POINT('Origin',(25.,10.,-1.5));
#516=CARTESIAN_POINT('Origin',(-25.,-10.,0.375));
#517=CARTESIAN_POINT('',(-30.,-10.,1.5));
#518=CARTESIAN_POINT('Origin',(-25.,-10.,1.5));
#519=CARTESIAN_POINT('',(-27.75,-10.,-0.750000000000004));
#520=CARTESIAN_POINT('',(-28.875,-10.,0.375));
#521=CARTESIAN_POINT('Origin',(-25.,-10.,-0.750000000000005));
#522=CARTESIAN_POINT('Origin',(-25.,-10.,-72.3850458482635));
#523=CARTESIAN_POINT('',(-27.75,-10.,-1.5));
#524=CARTESIAN_POINT('',(-27.75,-10.,-72.3850458482635));
#525=CARTESIAN_POINT('Origin',(-25.,-10.,-1.5));
#526=CARTESIAN_POINT('Origin',(2.49999999999999,-8.25,1.5));
#527=CARTESIAN_POINT('',(-2.50000000000001,-8.25,-1.5));
#528=CARTESIAN_POINT('',(2.49999999999999,-8.25,-1.5));
#529=CARTESIAN_POINT('',(1.24999999999999,-8.25,-1.5));
#530=CARTESIAN_POINT('',(-2.50000000000001,-8.25,1.5));
#531=CARTESIAN_POINT('',(-2.50000000000001,-8.25,1.5));
#532=CARTESIAN_POINT('',(2.49999999999999,-8.25,1.5));
#533=CARTESIAN_POINT('',(1.24999999999999,-8.25,1.5));
#534=CARTESIAN_POINT('',(2.49999999999999,-8.25,1.5));
#535=CARTESIAN_POINT('Origin',(2.49999999999999,0.,1.5));
#536=CARTESIAN_POINT('',(2.49999999999999,8.25,-1.5));
#537=CARTESIAN_POINT('Origin',(2.49999999999999,0.,-1.5));
#538=CARTESIAN_POINT('',(2.49999999999999,8.25,1.5));
#539=CARTESIAN_POINT('Origin',(2.49999999999999,0.,1.5));
#540=CARTESIAN_POINT('',(2.49999999999999,8.25,1.5));
#541=CARTESIAN_POINT('Origin',(-2.50000000000001,8.25,1.5));
#542=CARTESIAN_POINT('',(-2.50000000000001,8.25,-1.5));
#543=CARTESIAN_POINT('',(-1.25000000000001,8.25,-1.5));
#544=CARTESIAN_POINT('',(-2.50000000000001,8.25,1.5));
#545=CARTESIAN_POINT('',(-1.25000000000001,8.25,1.5));
#546=CARTESIAN_POINT('',(-2.50000000000001,8.25,1.5));
#547=CARTESIAN_POINT('Origin',(-2.50000000000001,0.,1.5));
#548=CARTESIAN_POINT('Origin',(-2.50000000000001,0.,-1.5));
#549=CARTESIAN_POINT('Origin',(-2.50000000000001,0.,1.5));
#550=CARTESIAN_POINT('Origin',(32.5,17.5,-1.5));
#551=CARTESIAN_POINT('',(32.5,17.5,1.5));
#552=CARTESIAN_POINT('',(32.5,-17.5,1.5));
#553=CARTESIAN_POINT('',(32.5,17.5,1.5));
#554=CARTESIAN_POINT('',(32.5,-17.5,-1.5));
#555=CARTESIAN_POINT('',(32.5,-17.5,-1.5));
#556=CARTESIAN_POINT('',(32.5,17.5,-1.5));
#557=CARTESIAN_POINT('',(32.5,17.5,-1.5));
#558=CARTESIAN_POINT('',(32.5,17.5,-1.5));
#559=CARTESIAN_POINT('Origin',(32.5,-17.5,-1.5));
#560=CARTESIAN_POINT('',(-32.5,-17.5,1.5));
#561=CARTESIAN_POINT('',(32.5,-17.5,1.5));
#562=CARTESIAN_POINT('',(-32.5,-17.5,-1.5));
#563=CARTESIAN_POINT('',(-32.5,-17.5,-1.5));
#564=CARTESIAN_POINT('',(32.5,-17.5,-1.5));
#565=CARTESIAN_POINT('Origin',(-32.5,-17.5,-1.5));
#566=CARTESIAN_POINT('',(-32.5,17.5,1.5));
#567=CARTESIAN_POINT('',(-32.5,-17.5,1.5));
#568=CARTESIAN_POINT('',(-32.5,17.5,-1.5));
#569=CARTESIAN_POINT('',(-32.5,17.5,-1.5));
#570=CARTESIAN_POINT('',(-32.5,-17.5,-1.5));
#571=CARTESIAN_POINT('Origin',(-32.5,17.5,-1.5));
#572=CARTESIAN_POINT('',(-32.5,17.5,1.5));
#573=CARTESIAN_POINT('',(-32.5,17.5,-1.5));
#574=CARTESIAN_POINT('Origin',(-5.55111512312578E-15,2.59388470298787E-15,
1.5));
#575=CARTESIAN_POINT('Origin',(-5.55111512312578E-15,2.29109660536282E-15,
-1.5));
#576=UNCERTAINTY_MEASURE_WITH_UNIT(LENGTH_MEASURE(0.01),#580,
'DISTANCE_ACCURACY_VALUE',
'Maximum model space distance between geometric entities at asserted c
onnectivities');
#577=UNCERTAINTY_MEASURE_WITH_UNIT(LENGTH_MEASURE(0.01),#580,
'DISTANCE_ACCURACY_VALUE',
'Maximum model space distance between geometric entities at asserted c
onnectivities');
#578=(
GEOMETRIC_REPRESENTATION_CONTEXT(3)
GLOBAL_UNCERTAINTY_ASSIGNED_CONTEXT((#576))
GLOBAL_UNIT_ASSIGNED_CONTEXT((#580,#582,#583))
REPRESENTATION_CONTEXT('','3D')
);
#579=(
GEOMETRIC_REPRESENTATION_CONTEXT(3)
GLOBAL_UNCERTAINTY_ASSIGNED_CONTEXT((#577))
GLOBAL_UNIT_ASSIGNED_CONTEXT((#580,#582,#583))
REPRESENTATION_CONTEXT('','3D')
);
#580=(
LENGTH_UNIT()
NAMED_UNIT(*)
SI_UNIT(.MILLI.,.METRE.)
);
#581=(
LENGTH_UNIT()
NAMED_UNIT(*)
SI_UNIT(.CENTI.,.METRE.)
);
#582=(
NAMED_UNIT(*)
PLANE_ANGLE_UNIT()
SI_UNIT($,.RADIAN.)
);
#583=(
NAMED_UNIT(*)
SI_UNIT($,.STERADIAN.)
SOLID_ANGLE_UNIT()
);
#584=SHAPE_DEFINITION_REPRESENTATION(#585,#586);
#585=PRODUCT_DEFINITION_SHAPE('',$,#588);
#586=SHAPE_REPRESENTATION('',(#352),#578);
#587=PRODUCT_DEFINITION_CONTEXT('part definition',#592,'design');
#588=PRODUCT_DEFINITION('1316GE','1316GE',#589,#587);
#589=PRODUCT_DEFINITION_FORMATION('',$,#594);
#590=PRODUCT_RELATED_PRODUCT_CATEGORY('1316GE','1316GE',(#594));
#591=APPLICATION_PROTOCOL_DEFINITION('international standard',
'automotive_design',2009,#592);
#592=APPLICATION_CONTEXT(
'Core Data for Automotive Mechanical Design Process');
#593=PRODUCT_CONTEXT('part definition',#592,'mechanical');
#594=PRODUCT('1316GE','1316GE',$,(#593));
#595=PRESENTATION_STYLE_ASSIGNMENT((#596));
#596=SURFACE_STYLE_USAGE(.BOTH.,#599);
#597=SURFACE_STYLE_RENDERING_WITH_PROPERTIES($,#603,(#598));
#598=SURFACE_STYLE_TRANSPARENT(0.);
#599=SURFACE_SIDE_STYLE('',(#600,#597));
#600=SURFACE_STYLE_FILL_AREA(#601);
#601=FILL_AREA_STYLE('',(#602));
#602=FILL_AREA_STYLE_COLOUR('',#603);
#603=COLOUR_RGB('',0.749019607843137,0.749019607843137,0.749019607843137);
ENDSEC;
END-ISO-10303-21;
