ISO-10303-21;
HEADER;
/* Generated by software containing ST-Developer
 * from STEP Tools, Inc. (www.steptools.com) 
 */

FILE_DESCRIPTION(
/* description */ (''),
/* implementation_level */ '2;1');

FILE_NAME(
/* name */ 'C:\\Users\\Mmalfroy\\Desktop\\Nouveau dossier\\1115  L=600
0.stp',
/* time_stamp */ '2020-03-03T10:53:21+01:00',
/* author */ ('MMALFROY'),
/* organization */ (''),
/* preprocessor_version */ 'ST-DEVELOPER v17.2',
/* originating_system */ 'Autodesk Inventor 2019',
/* authorisation */ '');

FILE_SCHEMA (('AUTOMOTIVE_DESIGN { 1 0 10303 214 3 1 1 }'));
ENDSEC;

DATA;
#10=MECHANICAL_DESIGN_GEOMETRIC_PRESENTATION_REPRESENTATION('',(#13),#461);
#11=SHAPE_REPRESENTATION_RELATIONSHIP('SRR','None',#468,#12);
#12=ADVANCED_BREP_SHAPE_REPRESENTATION('',(#14),#460);
#13=STYLED_ITEM('',(#477),#14);
#14=MANIFOLD_SOLID_BREP('Solide1',#267);
#15=CYLINDRICAL_SURFACE('',#294,2.);
#16=CYLINDRICAL_SURFACE('',#297,2.00000000000001);
#17=CYLINDRICAL_SURFACE('',#302,4.00000000000001);
#18=CYLINDRICAL_SURFACE('',#305,4.00000000000001);
#19=FACE_OUTER_BOUND('',#33,.T.);
#20=FACE_OUTER_BOUND('',#34,.T.);
#21=FACE_OUTER_BOUND('',#35,.T.);
#22=FACE_OUTER_BOUND('',#36,.T.);
#23=FACE_OUTER_BOUND('',#37,.T.);
#24=FACE_OUTER_BOUND('',#38,.T.);
#25=FACE_OUTER_BOUND('',#39,.T.);
#26=FACE_OUTER_BOUND('',#40,.T.);
#27=FACE_OUTER_BOUND('',#41,.T.);
#28=FACE_OUTER_BOUND('',#42,.T.);
#29=FACE_OUTER_BOUND('',#43,.T.);
#30=FACE_OUTER_BOUND('',#44,.T.);
#31=FACE_OUTER_BOUND('',#45,.T.);
#32=FACE_OUTER_BOUND('',#46,.T.);
#33=EDGE_LOOP('',(#171,#172,#173,#174,#175,#176,#177,#178,#179,#180,#181,
#182));
#34=EDGE_LOOP('',(#183,#184,#185,#186));
#35=EDGE_LOOP('',(#187,#188,#189,#190));
#36=EDGE_LOOP('',(#191,#192,#193,#194));
#37=EDGE_LOOP('',(#195,#196,#197,#198));
#38=EDGE_LOOP('',(#199,#200,#201,#202));
#39=EDGE_LOOP('',(#203,#204,#205,#206));
#40=EDGE_LOOP('',(#207,#208,#209,#210));
#41=EDGE_LOOP('',(#211,#212,#213,#214));
#42=EDGE_LOOP('',(#215,#216,#217,#218));
#43=EDGE_LOOP('',(#219,#220,#221,#222));
#44=EDGE_LOOP('',(#223,#224,#225,#226));
#45=EDGE_LOOP('',(#227,#228,#229,#230));
#46=EDGE_LOOP('',(#231,#232,#233,#234,#235,#236,#237,#238,#239,#240,#241,
#242));
#47=CIRCLE('',#288,4.00000000000001);
#48=CIRCLE('',#289,4.00000000000001);
#49=CIRCLE('',#290,2.00000000000001);
#50=CIRCLE('',#291,2.);
#51=CIRCLE('',#295,2.);
#52=CIRCLE('',#298,2.00000000000001);
#53=CIRCLE('',#303,4.00000000000001);
#54=CIRCLE('',#306,4.00000000000001);
#55=LINE('',#387,#83);
#56=LINE('',#389,#84);
#57=LINE('',#393,#85);
#58=LINE('',#397,#86);
#59=LINE('',#399,#87);
#60=LINE('',#401,#88);
#61=LINE('',#405,#89);
#62=LINE('',#408,#90);
#63=LINE('',#411,#91);
#64=LINE('',#413,#92);
#65=LINE('',#414,#93);
#66=LINE('',#417,#94);
#67=LINE('',#418,#95);
#68=LINE('',#421,#96);
#69=LINE('',#425,#97);
#70=LINE('',#426,#98);
#71=LINE('',#429,#99);
#72=LINE('',#433,#100);
#73=LINE('',#434,#101);
#74=LINE('',#437,#102);
#75=LINE('',#438,#103);
#76=LINE('',#441,#104);
#77=LINE('',#442,#105);
#78=LINE('',#445,#106);
#79=LINE('',#449,#107);
#80=LINE('',#450,#108);
#81=LINE('',#453,#109);
#82=LINE('',#456,#110);
#83=VECTOR('',#313,10.);
#84=VECTOR('',#314,10.);
#85=VECTOR('',#317,10.);
#86=VECTOR('',#320,10.);
#87=VECTOR('',#321,10.);
#88=VECTOR('',#322,10.);
#89=VECTOR('',#325,10.);
#90=VECTOR('',#328,10.);
#91=VECTOR('',#331,10.);
#92=VECTOR('',#332,10.);
#93=VECTOR('',#333,10.);
#94=VECTOR('',#336,10.);
#95=VECTOR('',#337,10.);
#96=VECTOR('',#340,10.);
#97=VECTOR('',#345,10.);
#98=VECTOR('',#346,10.);
#99=VECTOR('',#349,10.);
#100=VECTOR('',#354,10.);
#101=VECTOR('',#355,10.);
#102=VECTOR('',#358,10.);
#103=VECTOR('',#359,10.);
#104=VECTOR('',#362,10.);
#105=VECTOR('',#363,10.);
#106=VECTOR('',#366,10.);
#107=VECTOR('',#371,10.);
#108=VECTOR('',#372,10.);
#109=VECTOR('',#375,10.);
#110=VECTOR('',#380,10.);
#111=VERTEX_POINT('',#385);
#112=VERTEX_POINT('',#386);
#113=VERTEX_POINT('',#388);
#114=VERTEX_POINT('',#390);
#115=VERTEX_POINT('',#392);
#116=VERTEX_POINT('',#394);
#117=VERTEX_POINT('',#396);
#118=VERTEX_POINT('',#398);
#119=VERTEX_POINT('',#400);
#120=VERTEX_POINT('',#402);
#121=VERTEX_POINT('',#404);
#122=VERTEX_POINT('',#406);
#123=VERTEX_POINT('',#410);
#124=VERTEX_POINT('',#412);
#125=VERTEX_POINT('',#416);
#126=VERTEX_POINT('',#420);
#127=VERTEX_POINT('',#424);
#128=VERTEX_POINT('',#428);
#129=VERTEX_POINT('',#432);
#130=VERTEX_POINT('',#436);
#131=VERTEX_POINT('',#440);
#132=VERTEX_POINT('',#444);
#133=VERTEX_POINT('',#448);
#134=VERTEX_POINT('',#452);
#135=EDGE_CURVE('',#111,#112,#55,.T.);
#136=EDGE_CURVE('',#113,#111,#56,.T.);
#137=EDGE_CURVE('',#114,#113,#47,.T.);
#138=EDGE_CURVE('',#115,#114,#57,.T.);
#139=EDGE_CURVE('',#116,#115,#48,.T.);
#140=EDGE_CURVE('',#117,#116,#58,.T.);
#141=EDGE_CURVE('',#118,#117,#59,.T.);
#142=EDGE_CURVE('',#119,#118,#60,.T.);
#143=EDGE_CURVE('',#120,#119,#49,.T.);
#144=EDGE_CURVE('',#121,#120,#61,.T.);
#145=EDGE_CURVE('',#122,#121,#50,.T.);
#146=EDGE_CURVE('',#112,#122,#62,.T.);
#147=EDGE_CURVE('',#123,#112,#63,.T.);
#148=EDGE_CURVE('',#123,#124,#64,.T.);
#149=EDGE_CURVE('',#124,#111,#65,.T.);
#150=EDGE_CURVE('',#125,#122,#66,.T.);
#151=EDGE_CURVE('',#125,#123,#67,.T.);
#152=EDGE_CURVE('',#126,#121,#68,.T.);
#153=EDGE_CURVE('',#126,#125,#51,.T.);
#154=EDGE_CURVE('',#127,#120,#69,.T.);
#155=EDGE_CURVE('',#127,#126,#70,.T.);
#156=EDGE_CURVE('',#128,#119,#71,.T.);
#157=EDGE_CURVE('',#128,#127,#52,.T.);
#158=EDGE_CURVE('',#129,#118,#72,.T.);
#159=EDGE_CURVE('',#129,#128,#73,.T.);
#160=EDGE_CURVE('',#130,#117,#74,.T.);
#161=EDGE_CURVE('',#130,#129,#75,.T.);
#162=EDGE_CURVE('',#131,#116,#76,.T.);
#163=EDGE_CURVE('',#131,#130,#77,.T.);
#164=EDGE_CURVE('',#132,#115,#78,.T.);
#165=EDGE_CURVE('',#132,#131,#53,.T.);
#166=EDGE_CURVE('',#133,#114,#79,.T.);
#167=EDGE_CURVE('',#133,#132,#80,.T.);
#168=EDGE_CURVE('',#134,#113,#81,.T.);
#169=EDGE_CURVE('',#134,#133,#54,.T.);
#170=EDGE_CURVE('',#124,#134,#82,.T.);
#171=ORIENTED_EDGE('',*,*,#135,.F.);
#172=ORIENTED_EDGE('',*,*,#136,.F.);
#173=ORIENTED_EDGE('',*,*,#137,.F.);
#174=ORIENTED_EDGE('',*,*,#138,.F.);
#175=ORIENTED_EDGE('',*,*,#139,.F.);
#176=ORIENTED_EDGE('',*,*,#140,.F.);
#177=ORIENTED_EDGE('',*,*,#141,.F.);
#178=ORIENTED_EDGE('',*,*,#142,.F.);
#179=ORIENTED_EDGE('',*,*,#143,.F.);
#180=ORIENTED_EDGE('',*,*,#144,.F.);
#181=ORIENTED_EDGE('',*,*,#145,.F.);
#182=ORIENTED_EDGE('',*,*,#146,.F.);
#183=ORIENTED_EDGE('',*,*,#147,.F.);
#184=ORIENTED_EDGE('',*,*,#148,.T.);
#185=ORIENTED_EDGE('',*,*,#149,.T.);
#186=ORIENTED_EDGE('',*,*,#135,.T.);
#187=ORIENTED_EDGE('',*,*,#150,.F.);
#188=ORIENTED_EDGE('',*,*,#151,.T.);
#189=ORIENTED_EDGE('',*,*,#147,.T.);
#190=ORIENTED_EDGE('',*,*,#146,.T.);
#191=ORIENTED_EDGE('',*,*,#152,.F.);
#192=ORIENTED_EDGE('',*,*,#153,.T.);
#193=ORIENTED_EDGE('',*,*,#150,.T.);
#194=ORIENTED_EDGE('',*,*,#145,.T.);
#195=ORIENTED_EDGE('',*,*,#154,.F.);
#196=ORIENTED_EDGE('',*,*,#155,.T.);
#197=ORIENTED_EDGE('',*,*,#152,.T.);
#198=ORIENTED_EDGE('',*,*,#144,.T.);
#199=ORIENTED_EDGE('',*,*,#156,.F.);
#200=ORIENTED_EDGE('',*,*,#157,.T.);
#201=ORIENTED_EDGE('',*,*,#154,.T.);
#202=ORIENTED_EDGE('',*,*,#143,.T.);
#203=ORIENTED_EDGE('',*,*,#158,.F.);
#204=ORIENTED_EDGE('',*,*,#159,.T.);
#205=ORIENTED_EDGE('',*,*,#156,.T.);
#206=ORIENTED_EDGE('',*,*,#142,.T.);
#207=ORIENTED_EDGE('',*,*,#160,.F.);
#208=ORIENTED_EDGE('',*,*,#161,.T.);
#209=ORIENTED_EDGE('',*,*,#158,.T.);
#210=ORIENTED_EDGE('',*,*,#141,.T.);
#211=ORIENTED_EDGE('',*,*,#162,.F.);
#212=ORIENTED_EDGE('',*,*,#163,.T.);
#213=ORIENTED_EDGE('',*,*,#160,.T.);
#214=ORIENTED_EDGE('',*,*,#140,.T.);
#215=ORIENTED_EDGE('',*,*,#164,.F.);
#216=ORIENTED_EDGE('',*,*,#165,.T.);
#217=ORIENTED_EDGE('',*,*,#162,.T.);
#218=ORIENTED_EDGE('',*,*,#139,.T.);
#219=ORIENTED_EDGE('',*,*,#166,.F.);
#220=ORIENTED_EDGE('',*,*,#167,.T.);
#221=ORIENTED_EDGE('',*,*,#164,.T.);
#222=ORIENTED_EDGE('',*,*,#138,.T.);
#223=ORIENTED_EDGE('',*,*,#168,.F.);
#224=ORIENTED_EDGE('',*,*,#169,.T.);
#225=ORIENTED_EDGE('',*,*,#166,.T.);
#226=ORIENTED_EDGE('',*,*,#137,.T.);
#227=ORIENTED_EDGE('',*,*,#149,.F.);
#228=ORIENTED_EDGE('',*,*,#170,.T.);
#229=ORIENTED_EDGE('',*,*,#168,.T.);
#230=ORIENTED_EDGE('',*,*,#136,.T.);
#231=ORIENTED_EDGE('',*,*,#170,.F.);
#232=ORIENTED_EDGE('',*,*,#148,.F.);
#233=ORIENTED_EDGE('',*,*,#151,.F.);
#234=ORIENTED_EDGE('',*,*,#153,.F.);
#235=ORIENTED_EDGE('',*,*,#155,.F.);
#236=ORIENTED_EDGE('',*,*,#157,.F.);
#237=ORIENTED_EDGE('',*,*,#159,.F.);
#238=ORIENTED_EDGE('',*,*,#161,.F.);
#239=ORIENTED_EDGE('',*,*,#163,.F.);
#240=ORIENTED_EDGE('',*,*,#165,.F.);
#241=ORIENTED_EDGE('',*,*,#167,.F.);
#242=ORIENTED_EDGE('',*,*,#169,.F.);
#243=PLANE('',#287);
#244=PLANE('',#292);
#245=PLANE('',#293);
#246=PLANE('',#296);
#247=PLANE('',#299);
#248=PLANE('',#300);
#249=PLANE('',#301);
#250=PLANE('',#304);
#251=PLANE('',#307);
#252=PLANE('',#308);
#253=ADVANCED_FACE('',(#19),#243,.T.);
#254=ADVANCED_FACE('',(#20),#244,.T.);
#255=ADVANCED_FACE('',(#21),#245,.T.);
#256=ADVANCED_FACE('',(#22),#15,.F.);
#257=ADVANCED_FACE('',(#23),#246,.T.);
#258=ADVANCED_FACE('',(#24),#16,.F.);
#259=ADVANCED_FACE('',(#25),#247,.T.);
#260=ADVANCED_FACE('',(#26),#248,.T.);
#261=ADVANCED_FACE('',(#27),#249,.T.);
#262=ADVANCED_FACE('',(#28),#17,.T.);
#263=ADVANCED_FACE('',(#29),#250,.T.);
#264=ADVANCED_FACE('',(#30),#18,.T.);
#265=ADVANCED_FACE('',(#31),#251,.T.);
#266=ADVANCED_FACE('',(#32),#252,.F.);
#267=CLOSED_SHELL('',(#253,#254,#255,#256,#257,#258,#259,#260,#261,#262,
#263,#264,#265,#266));
#268=DERIVED_UNIT_ELEMENT(#270,1.);
#269=DERIVED_UNIT_ELEMENT(#463,3.);
#270=(
MASS_UNIT()
NAMED_UNIT(*)
SI_UNIT($,.GRAM.)
);
#271=DERIVED_UNIT((#268,#269));
#272=MEASURE_REPRESENTATION_ITEM('density measure',
POSITIVE_RATIO_MEASURE(1.),#271);
#273=PROPERTY_DEFINITION_REPRESENTATION(#278,#275);
#274=PROPERTY_DEFINITION_REPRESENTATION(#279,#276);
#275=REPRESENTATION('material name',(#277),#460);
#276=REPRESENTATION('density',(#272),#460);
#277=DESCRIPTIVE_REPRESENTATION_ITEM('G\X\E9n\X\E9rique','G\X\E9n\X\E9
rique');
#278=PROPERTY_DEFINITION('material property','material name',#470);
#279=PROPERTY_DEFINITION('material property','density of part',#470);
#280=DATE_TIME_ROLE('creation_date');
#281=APPLIED_DATE_AND_TIME_ASSIGNMENT(#282,#280,(#470));
#282=DATE_AND_TIME(#283,#284);
#283=CALENDAR_DATE(2004,10,3);
#284=LOCAL_TIME(15,29,55.,#285);
#285=COORDINATED_UNIVERSAL_TIME_OFFSET(0,0,.BEHIND.);
#286=AXIS2_PLACEMENT_3D('placement',#383,#309,#310);
#287=AXIS2_PLACEMENT_3D('',#384,#311,#312);
#288=AXIS2_PLACEMENT_3D('',#391,#315,#316);
#289=AXIS2_PLACEMENT_3D('',#395,#318,#319);
#290=AXIS2_PLACEMENT_3D('',#403,#323,#324);
#291=AXIS2_PLACEMENT_3D('',#407,#326,#327);
#292=AXIS2_PLACEMENT_3D('',#409,#329,#330);
#293=AXIS2_PLACEMENT_3D('',#415,#334,#335);
#294=AXIS2_PLACEMENT_3D('',#419,#338,#339);
#295=AXIS2_PLACEMENT_3D('',#422,#341,#342);
#296=AXIS2_PLACEMENT_3D('',#423,#343,#344);
#297=AXIS2_PLACEMENT_3D('',#427,#347,#348);
#298=AXIS2_PLACEMENT_3D('',#430,#350,#351);
#299=AXIS2_PLACEMENT_3D('',#431,#352,#353);
#300=AXIS2_PLACEMENT_3D('',#435,#356,#357);
#301=AXIS2_PLACEMENT_3D('',#439,#360,#361);
#302=AXIS2_PLACEMENT_3D('',#443,#364,#365);
#303=AXIS2_PLACEMENT_3D('',#446,#367,#368);
#304=AXIS2_PLACEMENT_3D('',#447,#369,#370);
#305=AXIS2_PLACEMENT_3D('',#451,#373,#374);
#306=AXIS2_PLACEMENT_3D('',#454,#376,#377);
#307=AXIS2_PLACEMENT_3D('',#455,#378,#379);
#308=AXIS2_PLACEMENT_3D('',#457,#381,#382);
#309=DIRECTION('axis',(0.,0.,1.));
#310=DIRECTION('refdir',(1.,0.,0.));
#311=DIRECTION('center_axis',(0.,0.,1.));
#312=DIRECTION('ref_axis',(1.,0.,0.));
#313=DIRECTION('',(1.,1.17427435296892E-16,0.));
#314=DIRECTION('',(7.56548298553096E-17,1.,0.));
#315=DIRECTION('center_axis',(0.,0.,-1.));
#316=DIRECTION('ref_axis',(2.3378734845472E-15,-1.,0.));
#317=DIRECTION('',(-1.,-1.17427435296892E-16,0.));
#318=DIRECTION('center_axis',(0.,0.,-1.));
#319=DIRECTION('ref_axis',(1.,3.9498319145318E-16,0.));
#320=DIRECTION('',(1.17427435296892E-16,-1.,0.));
#321=DIRECTION('',(1.,-2.84316729703686E-15,0.));
#322=DIRECTION('',(7.99455468586918E-17,1.,0.));
#323=DIRECTION('center_axis',(0.,0.,1.));
#324=DIRECTION('ref_axis',(-1.,5.15613193167257E-15,0.));
#325=DIRECTION('',(1.,8.41207445581369E-17,0.));
#326=DIRECTION('center_axis',(0.,0.,1.));
#327=DIRECTION('ref_axis',(-1.17427435296892E-16,1.,0.));
#328=DIRECTION('',(1.17427435296892E-16,-1.,0.));
#329=DIRECTION('center_axis',(0.,1.,0.));
#330=DIRECTION('ref_axis',(0.,0.,1.));
#331=DIRECTION('',(0.,0.,1.));
#332=DIRECTION('',(-1.,0.,0.));
#333=DIRECTION('',(0.,0.,1.));
#334=DIRECTION('center_axis',(1.,1.35693925231964E-16,0.));
#335=DIRECTION('ref_axis',(0.,0.,-1.));
#336=DIRECTION('',(0.,0.,1.));
#337=DIRECTION('',(-1.35693925231964E-16,1.,0.));
#338=DIRECTION('center_axis',(0.,0.,1.));
#339=DIRECTION('ref_axis',(1.,4.99600361081321E-15,0.));
#340=DIRECTION('',(0.,0.,1.));
#341=DIRECTION('center_axis',(0.,0.,-1.));
#342=DIRECTION('ref_axis',(1.,4.99600361081321E-15,0.));
#343=DIRECTION('center_axis',(-8.88178419700125E-17,1.,0.));
#344=DIRECTION('ref_axis',(0.,0.,1.));
#345=DIRECTION('',(0.,0.,1.));
#346=DIRECTION('',(-1.,-8.88178419700125E-17,0.));
#347=DIRECTION('center_axis',(0.,0.,1.));
#348=DIRECTION('ref_axis',(-4.4408920985006E-15,1.,0.));
#349=DIRECTION('',(0.,0.,1.));
#350=DIRECTION('center_axis',(0.,0.,-1.));
#351=DIRECTION('ref_axis',(-4.4408920985006E-15,1.,0.));
#352=DIRECTION('center_axis',(-1.,0.,0.));
#353=DIRECTION('ref_axis',(0.,0.,1.));
#354=DIRECTION('',(0.,0.,1.));
#355=DIRECTION('',(0.,-1.,0.));
#356=DIRECTION('center_axis',(2.96059473233375E-15,1.,0.));
#357=DIRECTION('ref_axis',(0.,0.,1.));
#358=DIRECTION('',(0.,0.,1.));
#359=DIRECTION('',(-1.,2.96059473233375E-15,0.));
#360=DIRECTION('center_axis',(1.,1.93082265152201E-16,0.));
#361=DIRECTION('ref_axis',(0.,0.,-1.));
#362=DIRECTION('',(0.,0.,1.));
#363=DIRECTION('',(-1.93082265152201E-16,1.,0.));
#364=DIRECTION('center_axis',(0.,0.,1.));
#365=DIRECTION('ref_axis',(2.22044604925031E-15,-1.,0.));
#366=DIRECTION('',(0.,0.,1.));
#367=DIRECTION('center_axis',(0.,0.,1.));
#368=DIRECTION('ref_axis',(2.22044604925031E-15,-1.,0.));
#369=DIRECTION('center_axis',(1.17427435296892E-16,-1.,0.));
#370=DIRECTION('ref_axis',(0.,0.,-1.));
#371=DIRECTION('',(0.,0.,1.));
#372=DIRECTION('',(1.,1.17427435296892E-16,0.));
#373=DIRECTION('center_axis',(0.,0.,1.));
#374=DIRECTION('ref_axis',(-1.,-1.66533453693773E-15,0.));
#375=DIRECTION('',(0.,0.,1.));
#376=DIRECTION('center_axis',(0.,0.,1.));
#377=DIRECTION('ref_axis',(-1.,-1.66533453693773E-15,0.));
#378=DIRECTION('center_axis',(-1.,-1.20676415720126E-17,0.));
#379=DIRECTION('ref_axis',(0.,0.,1.));
#380=DIRECTION('',(1.20676415720126E-17,-1.,0.));
#381=DIRECTION('center_axis',(0.,0.,1.));
#382=DIRECTION('ref_axis',(1.,0.,0.));
#383=CARTESIAN_POINT('',(0.,0.,0.));
#384=CARTESIAN_POINT('Origin',(30.,17.6511070690656,6000.));
#385=CARTESIAN_POINT('',(0.,50.,6000.));
#386=CARTESIAN_POINT('',(3.,50.,6000.));
#387=CARTESIAN_POINT('',(0.,50.,6000.));
#388=CARTESIAN_POINT('',(0.,4.,6000.));
#389=CARTESIAN_POINT('',(-3.48012217334424E-15,4.,6000.));
#390=CARTESIAN_POINT('',(4.00000000000001,1.11022302462516E-15,6000.));
#391=CARTESIAN_POINT('Origin',(4.,4.00000000000001,6000.));
#392=CARTESIAN_POINT('',(56.,7.21644966006352E-15,6000.));
#393=CARTESIAN_POINT('',(56.,7.21644966006352E-15,6000.));
#394=CARTESIAN_POINT('',(60.,4.00000000000002,6000.));
#395=CARTESIAN_POINT('Origin',(56.,4.00000000000002,6000.));
#396=CARTESIAN_POINT('',(60.,50.,6000.));
#397=CARTESIAN_POINT('',(60.,50.,6000.));
#398=CARTESIAN_POINT('',(57.,50.,6000.));
#399=CARTESIAN_POINT('',(57.,50.,6000.));
#400=CARTESIAN_POINT('',(57.,5.00000000000001,6000.));
#401=CARTESIAN_POINT('',(57.,5.00000000000001,6000.));
#402=CARTESIAN_POINT('',(55.,3.00000000000001,6000.));
#403=CARTESIAN_POINT('Origin',(55.,5.00000000000002,6000.));
#404=CARTESIAN_POINT('',(5.,3.,6000.));
#405=CARTESIAN_POINT('',(5.,3.,6000.));
#406=CARTESIAN_POINT('',(3.00000000000001,4.99999999999999,6000.));
#407=CARTESIAN_POINT('Origin',(5.,5.,6000.));
#408=CARTESIAN_POINT('',(3.,50.,6000.));
#409=CARTESIAN_POINT('Origin',(0.,50.,0.));
#410=CARTESIAN_POINT('',(3.,50.,0.));
#411=CARTESIAN_POINT('',(3.,50.,0.));
#412=CARTESIAN_POINT('',(0.,50.,0.));
#413=CARTESIAN_POINT('',(3.,50.,0.));
#414=CARTESIAN_POINT('',(0.,50.,0.));
#415=CARTESIAN_POINT('Origin',(3.,50.,0.));
#416=CARTESIAN_POINT('',(3.,4.99999999999999,0.));
#417=CARTESIAN_POINT('',(3.,4.99999999999999,0.));
#418=CARTESIAN_POINT('',(3.,4.99999999999999,0.));
#419=CARTESIAN_POINT('Origin',(5.,5.,0.));
#420=CARTESIAN_POINT('',(5.,3.,0.));
#421=CARTESIAN_POINT('',(5.,3.,0.));
#422=CARTESIAN_POINT('Origin',(5.,5.,0.));
#423=CARTESIAN_POINT('Origin',(5.,3.,0.));
#424=CARTESIAN_POINT('',(55.,3.00000000000001,0.));
#425=CARTESIAN_POINT('',(55.,3.00000000000001,0.));
#426=CARTESIAN_POINT('',(55.,3.00000000000001,0.));
#427=CARTESIAN_POINT('Origin',(55.,5.00000000000002,0.));
#428=CARTESIAN_POINT('',(57.,5.00000000000001,0.));
#429=CARTESIAN_POINT('',(57.,5.00000000000001,0.));
#430=CARTESIAN_POINT('Origin',(55.,5.00000000000002,0.));
#431=CARTESIAN_POINT('Origin',(57.,5.00000000000001,0.));
#432=CARTESIAN_POINT('',(57.,50.,0.));
#433=CARTESIAN_POINT('',(57.,50.,0.));
#434=CARTESIAN_POINT('',(57.,50.,0.));
#435=CARTESIAN_POINT('Origin',(57.,50.,0.));
#436=CARTESIAN_POINT('',(60.,50.,0.));
#437=CARTESIAN_POINT('',(60.,50.,0.));
#438=CARTESIAN_POINT('',(60.,50.,0.));
#439=CARTESIAN_POINT('Origin',(60.,50.,0.));
#440=CARTESIAN_POINT('',(60.,4.00000000000002,0.));
#441=CARTESIAN_POINT('',(60.,4.00000000000002,0.));
#442=CARTESIAN_POINT('',(60.,4.00000000000002,0.));
#443=CARTESIAN_POINT('Origin',(56.,4.00000000000002,0.));
#444=CARTESIAN_POINT('',(56.,7.21644966006352E-15,0.));
#445=CARTESIAN_POINT('',(56.,7.21644966006352E-15,0.));
#446=CARTESIAN_POINT('Origin',(56.,4.00000000000002,0.));
#447=CARTESIAN_POINT('Origin',(56.,7.21644966006352E-15,0.));
#448=CARTESIAN_POINT('',(4.00000000000001,1.11022302462516E-15,0.));
#449=CARTESIAN_POINT('',(4.00000000000001,1.11022302462516E-15,0.));
#450=CARTESIAN_POINT('',(4.00000000000001,1.11022302462516E-15,0.));
#451=CARTESIAN_POINT('Origin',(4.00000000000001,4.00000000000001,0.));
#452=CARTESIAN_POINT('',(5.55111512312578E-16,4.,0.));
#453=CARTESIAN_POINT('',(5.55111512312578E-16,4.,0.));
#454=CARTESIAN_POINT('Origin',(4.00000000000001,4.00000000000001,0.));
#455=CARTESIAN_POINT('Origin',(5.55111512312578E-16,4.,0.));
#456=CARTESIAN_POINT('',(0.,50.,0.));
#457=CARTESIAN_POINT('Origin',(30.,17.6511070690656,0.));
#458=UNCERTAINTY_MEASURE_WITH_UNIT(LENGTH_MEASURE(0.01),#462,
'DISTANCE_ACCURACY_VALUE',
'Maximum model space distance between geometric entities at asserted c
onnectivities');
#459=UNCERTAINTY_MEASURE_WITH_UNIT(LENGTH_MEASURE(0.01),#462,
'DISTANCE_ACCURACY_VALUE',
'Maximum model space distance between geometric entities at asserted c
onnectivities');
#460=(
GEOMETRIC_REPRESENTATION_CONTEXT(3)
GLOBAL_UNCERTAINTY_ASSIGNED_CONTEXT((#458))
GLOBAL_UNIT_ASSIGNED_CONTEXT((#462,#464,#465))
REPRESENTATION_CONTEXT('','3D')
);
#461=(
GEOMETRIC_REPRESENTATION_CONTEXT(3)
GLOBAL_UNCERTAINTY_ASSIGNED_CONTEXT((#459))
GLOBAL_UNIT_ASSIGNED_CONTEXT((#462,#464,#465))
REPRESENTATION_CONTEXT('','3D')
);
#462=(
LENGTH_UNIT()
NAMED_UNIT(*)
SI_UNIT(.MILLI.,.METRE.)
);
#463=(
LENGTH_UNIT()
NAMED_UNIT(*)
SI_UNIT(.CENTI.,.METRE.)
);
#464=(
NAMED_UNIT(*)
PLANE_ANGLE_UNIT()
SI_UNIT($,.RADIAN.)
);
#465=(
NAMED_UNIT(*)
SI_UNIT($,.STERADIAN.)
SOLID_ANGLE_UNIT()
);
#466=SHAPE_DEFINITION_REPRESENTATION(#467,#468);
#467=PRODUCT_DEFINITION_SHAPE('',$,#470);
#468=SHAPE_REPRESENTATION('',(#286),#460);
#469=PRODUCT_DEFINITION_CONTEXT('part definition',#474,'design');
#470=PRODUCT_DEFINITION('U 1115 montage','1115  L=2000',#471,#469);
#471=PRODUCT_DEFINITION_FORMATION('',$,#476);
#472=PRODUCT_RELATED_PRODUCT_CATEGORY('1115  L=2000','1115  L=2000',(#476));
#473=APPLICATION_PROTOCOL_DEFINITION('international standard',
'automotive_design',2009,#474);
#474=APPLICATION_CONTEXT(
'Core Data for Automotive Mechanical Design Process');
#475=PRODUCT_CONTEXT('part definition',#474,'mechanical');
#476=PRODUCT('U 1115 montage','1115  L=2000',$,(#475));
#477=PRESENTATION_STYLE_ASSIGNMENT((#478));
#478=SURFACE_STYLE_USAGE(.BOTH.,#481);
#479=SURFACE_STYLE_RENDERING_WITH_PROPERTIES($,#485,(#480));
#480=SURFACE_STYLE_TRANSPARENT(0.);
#481=SURFACE_SIDE_STYLE('',(#482,#479));
#482=SURFACE_STYLE_FILL_AREA(#483);
#483=FILL_AREA_STYLE('',(#484));
#484=FILL_AREA_STYLE_COLOUR('',#485);
#485=COLOUR_RGB('',0.752941176470588,0.752941176470588,0.752941176470588);
ENDSEC;
END-ISO-10303-21;
