ISO-10303-21;
HEADER;
/****************************************************************
 * Generated by software with PDE/Lib inside                    *
 * PDElib Version v51a, created Fri 05/18/2009                  *
 * International Technegroup Inc. (www.iti-oh.com)              *
 ****************************************************************/
FILE_DESCRIPTION((''),'2;1');
FILE_NAME('R:\\BE\\Inventor\\PRODUITS\\STP\\1115M.stp','2010-06-01T11:44:42',('Giuliano'),(''),'Autodesk Inventor 2010','Autodesk Inventor 2010','');
FILE_SCHEMA(('AUTOMOTIVE_DESIGN { 1 0 10303 214 1 1 1 1 }'));
ENDSEC;
DATA;
#5=APPLICATION_CONTEXT('automotive design');
#6=APPLICATION_PROTOCOL_DEFINITION('International Standard','automotive_design',2001,#5);
#7=PRODUCT_CONTEXT('',#5,'mechanical');
#8=PRODUCT('1115M','1115M',$,(#7));
#9=PRODUCT_RELATED_PRODUCT_CATEGORY('part',$,(#8));
#10=PRODUCT_DEFINITION_FORMATION('',$,#8);
#11=PRODUCT_DEFINITION_CONTEXT('part definition',#5,'design');
#12=PRODUCT_DEFINITION('',$,#10,#11);
#18=(NAMED_UNIT(*)PLANE_ANGLE_UNIT()SI_UNIT($,.RADIAN.));
#19=DIMENSIONAL_EXPONENTS(0.0,0.0,0.0,0.0,0.0,0.0,0.0);
#20=PLANE_ANGLE_MEASURE_WITH_UNIT(PLANE_ANGLE_MEASURE(0.017453292500000),#18);
#24=(CONVERSION_BASED_UNIT('DEGREE',#20)NAMED_UNIT(#19)PLANE_ANGLE_UNIT());
#28=(NAMED_UNIT(*)SI_UNIT($,.STERADIAN.)SOLID_ANGLE_UNIT());
#32=(LENGTH_UNIT()NAMED_UNIT(*)SI_UNIT(.MILLI.,.METRE.));
#34=UNCERTAINTY_MEASURE_WITH_UNIT(LENGTH_MEASURE(0.010000000000000),#32,'DISTANCE_ACCURACY_VALUE','');
#36=(GEOMETRIC_REPRESENTATION_CONTEXT(3)GLOBAL_UNCERTAINTY_ASSIGNED_CONTEXT((#34))GLOBAL_UNIT_ASSIGNED_CONTEXT((#24,#28,#32))REPRESENTATION_CONTEXT('None','None'));
#37=AXIS2_PLACEMENT_3D('',#38,#39,#40);
#38=CARTESIAN_POINT('',(0.0,0.0,0.0));
#39=DIRECTION('',(0.0,0.0,1.0));
#40=DIRECTION('',(1.0,0.0,0.0));
#41=SHAPE_REPRESENTATION('',(#37),#36);
#42=PRODUCT_DEFINITION_SHAPE('','',#12);
#43=SHAPE_DEFINITION_REPRESENTATION(#42,#41);
#49=(NAMED_UNIT(*)PLANE_ANGLE_UNIT()SI_UNIT($,.RADIAN.));
#50=DIMENSIONAL_EXPONENTS(0.0,0.0,0.0,0.0,0.0,0.0,0.0);
#51=PLANE_ANGLE_MEASURE_WITH_UNIT(PLANE_ANGLE_MEASURE(0.017453292500000),#49);
#55=(CONVERSION_BASED_UNIT('DEGREE',#51)NAMED_UNIT(#50)PLANE_ANGLE_UNIT());
#59=(NAMED_UNIT(*)SI_UNIT($,.STERADIAN.)SOLID_ANGLE_UNIT());
#63=(LENGTH_UNIT()NAMED_UNIT(*)SI_UNIT(.MILLI.,.METRE.));
#65=UNCERTAINTY_MEASURE_WITH_UNIT(LENGTH_MEASURE(0.000001000000000),#63,'DISTANCE_ACCURACY_VALUE','');
#67=(GEOMETRIC_REPRESENTATION_CONTEXT(3)GLOBAL_UNCERTAINTY_ASSIGNED_CONTEXT((#65))GLOBAL_UNIT_ASSIGNED_CONTEXT((#55,#59,#63))REPRESENTATION_CONTEXT('','3D'));
#68=CARTESIAN_POINT('',(-3.500000000000000,27.0,2.0));
#69=CARTESIAN_POINT('',(-3.500000000000000,27.0,0.0));
#70=CARTESIAN_POINT('',(-3.500000000000000,23.500000000000004,2.0));
#71=CARTESIAN_POINT('',(-3.500000000000000,23.500000000000004,0.0));
#72=CARTESIAN_POINT('',(0.0,23.500000000000000,2.0));
#73=CARTESIAN_POINT('',(0.0,23.500000000000000,0.0));
#74=CARTESIAN_POINT('',(3.500000000000000,23.500000000000004,2.0));
#75=CARTESIAN_POINT('',(3.500000000000000,23.500000000000004,0.0));
#76=CARTESIAN_POINT('',(3.500000000000000,27.0,2.0));
#77=CARTESIAN_POINT('',(3.500000000000000,27.0,0.0));
#78=CARTESIAN_POINT('',(3.500000000000000,30.499999999999996,2.0));
#79=CARTESIAN_POINT('',(3.500000000000000,30.499999999999996,0.0));
#80=CARTESIAN_POINT('',(0.0,30.500000000000000,2.0));
#81=CARTESIAN_POINT('',(0.0,30.500000000000000,0.0));
#82=CARTESIAN_POINT('',(-3.500000000000000,30.499999999999996,2.0));
#83=CARTESIAN_POINT('',(-3.500000000000000,30.499999999999996,0.0));
#84=CARTESIAN_POINT('',(-3.500000000000000,27.0,2.0));
#85=CARTESIAN_POINT('',(-3.500000000000000,27.0,0.0));
#93=(BOUNDED_SURFACE()B_SPLINE_SURFACE(1,2,((#68,#70,#72,#74,#76,#78,#80,#82,#84),(#69,#71,#73,#75,#77,#79,#81,#83,#85)),.UNSPECIFIED.,.F.,.T.,.U.)B_SPLINE_SURFACE_WITH_KNOTS((2,2),(3,2,2,2,3),(-0.285714285714286,0.285714285714286),(0.0,5.497787143782139,10.995574287564278,16.493361431346415,21.991148575128555),.UNSPECIFIED.)GEOMETRIC_REPRESENTATION_ITEM()RATIONAL_B_SPLINE_SURFACE(((1.0,0.707106781186548,1.0,0.707106781186548,1.0,0.707106781186548,1.0,0.707106781186548,1.0),(1.0,0.707106781186548,1.0,0.707106781186548,1.0,0.707106781186548,1.0,0.707106781186548,1.0)))REPRESENTATION_ITEM('')SURFACE());
#94=CARTESIAN_POINT('',(3.500000000000000,27.0,2.0));
#95=VERTEX_POINT('',#94);
#96=CARTESIAN_POINT('',(0.0,27.0,2.0));
#97=DIRECTION('',(0.0,0.0,-1.0));
#98=DIRECTION('',(1.0,0.0,0.0));
#99=AXIS2_PLACEMENT_3D('',#96,#97,#98);
#100=CIRCLE('',#99,3.500000000000000);
#101=EDGE_CURVE('',#95,#95,#100,.T.);
#102=ORIENTED_EDGE('',*,*,#101,.F.);
#103=EDGE_LOOP('',(#102));
#104=FACE_OUTER_BOUND('',#103,.T.);
#105=CARTESIAN_POINT('',(3.500000000000000,27.0,0.0));
#106=VERTEX_POINT('',#105);
#107=CARTESIAN_POINT('',(0.0,27.0,0.0));
#108=DIRECTION('',(0.0,0.0,1.0));
#109=DIRECTION('',(1.0,0.0,0.0));
#110=AXIS2_PLACEMENT_3D('',#107,#108,#109);
#111=CIRCLE('',#110,3.500000000000001);
#112=EDGE_CURVE('',#106,#106,#111,.T.);
#113=ORIENTED_EDGE('',*,*,#112,.F.);
#114=EDGE_LOOP('',(#113));
#115=FACE_BOUND('',#114,.T.);
#116=ADVANCED_FACE('',(#104,#115),#93,.F.);
#117=CARTESIAN_POINT('',(-3.500000000000000,-27.0,2.0));
#118=CARTESIAN_POINT('',(-3.500000000000000,-27.0,0.0));
#119=CARTESIAN_POINT('',(-3.500000000000000,-30.499999999999996,2.0));
#120=CARTESIAN_POINT('',(-3.500000000000000,-30.499999999999996,0.0));
#121=CARTESIAN_POINT('',(0.0,-30.500000000000000,2.0));
#122=CARTESIAN_POINT('',(0.0,-30.500000000000000,0.0));
#123=CARTESIAN_POINT('',(3.500000000000000,-30.499999999999996,2.0));
#124=CARTESIAN_POINT('',(3.500000000000000,-30.499999999999996,0.0));
#125=CARTESIAN_POINT('',(3.500000000000000,-27.0,2.0));
#126=CARTESIAN_POINT('',(3.500000000000000,-27.0,0.0));
#127=CARTESIAN_POINT('',(3.500000000000000,-23.500000000000004,2.0));
#128=CARTESIAN_POINT('',(3.500000000000000,-23.500000000000004,0.0));
#129=CARTESIAN_POINT('',(0.0,-23.500000000000000,2.0));
#130=CARTESIAN_POINT('',(0.0,-23.500000000000000,0.0));
#131=CARTESIAN_POINT('',(-3.500000000000000,-23.500000000000004,2.0));
#132=CARTESIAN_POINT('',(-3.500000000000000,-23.500000000000004,0.0));
#133=CARTESIAN_POINT('',(-3.500000000000000,-27.0,2.0));
#134=CARTESIAN_POINT('',(-3.500000000000000,-27.0,0.0));
#142=(BOUNDED_SURFACE()B_SPLINE_SURFACE(1,2,((#117,#119,#121,#123,#125,#127,#129,#131,#133),(#118,#120,#122,#124,#126,#128,#130,#132,#134)),.UNSPECIFIED.,.F.,.T.,.U.)B_SPLINE_SURFACE_WITH_KNOTS((2,2),(3,2,2,2,3),(-0.285714285714286,0.285714285714286),(0.0,5.497787143782139,10.995574287564278,16.493361431346415,21.991148575128555),.UNSPECIFIED.)GEOMETRIC_REPRESENTATION_ITEM()RATIONAL_B_SPLINE_SURFACE(((1.0,0.707106781186548,1.0,0.707106781186548,1.0,0.707106781186548,1.0,0.707106781186548,1.0),(1.0,0.707106781186548,1.0,0.707106781186548,1.0,0.707106781186548,1.0,0.707106781186548,1.0)))REPRESENTATION_ITEM('')SURFACE());
#143=CARTESIAN_POINT('',(3.500000000000000,-27.0,2.0));
#144=VERTEX_POINT('',#143);
#145=CARTESIAN_POINT('',(0.0,-27.0,2.0));
#146=DIRECTION('',(0.0,0.0,-1.0));
#147=DIRECTION('',(1.0,0.0,0.0));
#148=AXIS2_PLACEMENT_3D('',#145,#146,#147);
#149=CIRCLE('',#148,3.500000000000000);
#150=EDGE_CURVE('',#144,#144,#149,.T.);
#151=ORIENTED_EDGE('',*,*,#150,.F.);
#152=EDGE_LOOP('',(#151));
#153=FACE_OUTER_BOUND('',#152,.T.);
#154=CARTESIAN_POINT('',(3.500000000000000,-27.0,0.0));
#155=VERTEX_POINT('',#154);
#156=CARTESIAN_POINT('',(0.0,-27.0,0.0));
#157=DIRECTION('',(0.0,0.0,1.0));
#158=DIRECTION('',(1.0,0.0,0.0));
#159=AXIS2_PLACEMENT_3D('',#156,#157,#158);
#160=CIRCLE('',#159,3.500000000000001);
#161=EDGE_CURVE('',#155,#155,#160,.T.);
#162=ORIENTED_EDGE('',*,*,#161,.F.);
#163=EDGE_LOOP('',(#162));
#164=FACE_BOUND('',#163,.T.);
#165=ADVANCED_FACE('',(#153,#164),#142,.F.);
#166=CARTESIAN_POINT('',(-28.500000000000014,0.0,4.0));
#167=DIRECTION('',(0.0,1.0,0.0));
#168=DIRECTION('',(0.0,0.0,-1.0));
#169=AXIS2_PLACEMENT_3D('',#166,#167,#168);
#170=CYLINDRICAL_SURFACE('',#169,4.0);
#171=CARTESIAN_POINT('',(-32.500000000000014,47.500000000000000,4.000000000000002));
#172=VERTEX_POINT('',#171);
#173=CARTESIAN_POINT('',(-32.500000000000014,-47.500000000000000,4.000000000000002));
#174=VERTEX_POINT('',#173);
#175=CARTESIAN_POINT('',(-32.500000000000007,47.500000000000000,4.000000000000004));
#176=DIRECTION('',(0.0,-1.0,0.0));
#177=VECTOR('',#176,95.0);
#178=LINE('',#175,#177);
#179=EDGE_CURVE('',#172,#174,#178,.T.);
#180=ORIENTED_EDGE('',*,*,#179,.F.);
#181=CARTESIAN_POINT('',(-28.500000000000007,47.500000000000000,0.0));
#182=VERTEX_POINT('',#181);
#183=CARTESIAN_POINT('',(-28.500000000000014,47.500000000000000,4.0));
#184=DIRECTION('',(0.0,1.0,0.0));
#185=DIRECTION('',(0.0,0.0,-1.0));
#186=AXIS2_PLACEMENT_3D('',#183,#184,#185);
#187=CIRCLE('',#186,4.0);
#188=EDGE_CURVE('',#182,#172,#187,.T.);
#189=ORIENTED_EDGE('',*,*,#188,.F.);
#190=CARTESIAN_POINT('',(-28.500000000000007,-47.500000000000000,0.0));
#191=VERTEX_POINT('',#190);
#192=CARTESIAN_POINT('',(-28.500000000000007,-47.500000000000000,0.0));
#193=DIRECTION('',(0.0,1.0,0.0));
#194=VECTOR('',#193,95.0);
#195=LINE('',#192,#194);
#196=EDGE_CURVE('',#191,#182,#195,.T.);
#197=ORIENTED_EDGE('',*,*,#196,.F.);
#198=CARTESIAN_POINT('',(-28.500000000000014,-47.500000000000000,4.0));
#199=DIRECTION('',(0.0,1.0,0.0));
#200=DIRECTION('',(0.0,0.0,-1.0));
#201=AXIS2_PLACEMENT_3D('',#198,#199,#200);
#202=CIRCLE('',#201,4.0);
#203=EDGE_CURVE('',#191,#174,#202,.T.);
#204=ORIENTED_EDGE('',*,*,#203,.T.);
#205=EDGE_LOOP('',(#180,#189,#197,#204));
#206=FACE_OUTER_BOUND('',#205,.T.);
#207=ADVANCED_FACE('',(#206),#170,.T.);
#208=CARTESIAN_POINT('',(-28.500000000000014,0.0,4.0));
#209=DIRECTION('',(0.0,1.0,0.0));
#210=DIRECTION('',(0.0,0.0,-1.0));
#211=AXIS2_PLACEMENT_3D('',#208,#209,#210);
#212=CYLINDRICAL_SURFACE('',#211,2.0);
#213=CARTESIAN_POINT('',(-30.500000000000011,-47.500000000000000,4.000000000000002));
#214=VERTEX_POINT('',#213);
#215=CARTESIAN_POINT('',(-30.500000000000007,47.500000000000000,4.000000000000002));
#216=VERTEX_POINT('',#215);
#217=CARTESIAN_POINT('',(-30.500000000000007,-47.500000000000000,4.000000000000004));
#218=DIRECTION('',(0.0,1.0,0.0));
#219=VECTOR('',#218,95.0);
#220=LINE('',#217,#219);
#221=EDGE_CURVE('',#214,#216,#220,.T.);
#222=ORIENTED_EDGE('',*,*,#221,.F.);
#223=CARTESIAN_POINT('',(-28.500000000000007,-47.500000000000000,2.0));
#224=VERTEX_POINT('',#223);
#225=CARTESIAN_POINT('',(-28.500000000000014,-47.500000000000000,4.0));
#226=DIRECTION('',(0.0,1.0,0.0));
#227=DIRECTION('',(0.0,0.0,-1.0));
#228=AXIS2_PLACEMENT_3D('',#225,#226,#227);
#229=CIRCLE('',#228,2.0);
#230=EDGE_CURVE('',#224,#214,#229,.T.);
#231=ORIENTED_EDGE('',*,*,#230,.F.);
#232=CARTESIAN_POINT('',(-28.500000000000007,47.500000000000000,2.0));
#233=VERTEX_POINT('',#232);
#234=CARTESIAN_POINT('',(-28.500000000000007,47.500000000000000,2.0));
#235=DIRECTION('',(0.0,-1.0,0.0));
#236=VECTOR('',#235,95.0);
#237=LINE('',#234,#236);
#238=EDGE_CURVE('',#233,#224,#237,.T.);
#239=ORIENTED_EDGE('',*,*,#238,.F.);
#240=CARTESIAN_POINT('',(-28.500000000000014,47.500000000000000,4.0));
#241=DIRECTION('',(0.0,1.0,0.0));
#242=DIRECTION('',(0.0,0.0,-1.0));
#243=AXIS2_PLACEMENT_3D('',#240,#241,#242);
#244=CIRCLE('',#243,2.0);
#245=EDGE_CURVE('',#233,#216,#244,.T.);
#246=ORIENTED_EDGE('',*,*,#245,.T.);
#247=EDGE_LOOP('',(#222,#231,#239,#246));
#248=FACE_OUTER_BOUND('',#247,.T.);
#249=ADVANCED_FACE('',(#248),#212,.F.);
#250=CARTESIAN_POINT('',(0.0,-1.268087E-016,2.0));
#251=DIRECTION('',(0.0,0.0,1.0));
#252=DIRECTION('',(1.0,0.0,0.0));
#253=AXIS2_PLACEMENT_3D('',#250,#251,#252);
#254=PLANE('',#253);
#255=ORIENTED_EDGE('',*,*,#238,.T.);
#256=CARTESIAN_POINT('',(28.500000000000007,-47.500000000000000,2.0));
#257=VERTEX_POINT('',#256);
#258=CARTESIAN_POINT('',(28.500000000000007,-47.500000000000000,2.0));
#259=DIRECTION('',(-1.0,0.0,0.0));
#260=VECTOR('',#259,57.000000000000014);
#261=LINE('',#258,#260);
#262=EDGE_CURVE('',#257,#224,#261,.T.);
#263=ORIENTED_EDGE('',*,*,#262,.F.);
#264=CARTESIAN_POINT('',(28.500000000000007,47.500000000000000,2.0));
#265=VERTEX_POINT('',#264);
#266=CARTESIAN_POINT('',(28.500000000000007,-47.500000000000000,2.0));
#267=DIRECTION('',(0.0,1.0,0.0));
#268=VECTOR('',#267,95.0);
#269=LINE('',#266,#268);
#270=EDGE_CURVE('',#257,#265,#269,.T.);
#271=ORIENTED_EDGE('',*,*,#270,.T.);
#272=CARTESIAN_POINT('',(-28.500000000000007,47.500000000000000,2.0));
#273=DIRECTION('',(1.0,0.0,0.0));
#274=VECTOR('',#273,57.000000000000014);
#275=LINE('',#272,#274);
#276=EDGE_CURVE('',#233,#265,#275,.T.);
#277=ORIENTED_EDGE('',*,*,#276,.F.);
#278=EDGE_LOOP('',(#255,#263,#271,#277));
#279=FACE_OUTER_BOUND('',#278,.T.);
#280=ORIENTED_EDGE('',*,*,#101,.T.);
#281=EDGE_LOOP('',(#280));
#282=FACE_BOUND('',#281,.T.);
#283=ORIENTED_EDGE('',*,*,#150,.T.);
#284=EDGE_LOOP('',(#283));
#285=FACE_BOUND('',#284,.T.);
#286=ADVANCED_FACE('',(#279,#282,#285),#254,.T.);
#287=CARTESIAN_POINT('',(28.500000000000014,0.0,4.0));
#288=DIRECTION('',(0.0,-1.0,0.0));
#289=DIRECTION('',(0.0,0.0,-1.0));
#290=AXIS2_PLACEMENT_3D('',#287,#288,#289);
#291=CYLINDRICAL_SURFACE('',#290,4.0);
#292=CARTESIAN_POINT('',(32.500000000000014,-47.500000000000000,4.000000000000002));
#293=VERTEX_POINT('',#292);
#294=CARTESIAN_POINT('',(32.500000000000014,47.500000000000000,4.000000000000002));
#295=VERTEX_POINT('',#294);
#296=CARTESIAN_POINT('',(32.500000000000007,-47.500000000000000,4.000000000000004));
#297=DIRECTION('',(0.0,1.0,0.0));
#298=VECTOR('',#297,95.0);
#299=LINE('',#296,#298);
#300=EDGE_CURVE('',#293,#295,#299,.T.);
#301=ORIENTED_EDGE('',*,*,#300,.F.);
#302=CARTESIAN_POINT('',(28.500000000000007,-47.500000000000000,0.0));
#303=VERTEX_POINT('',#302);
#304=CARTESIAN_POINT('',(28.500000000000014,-47.500000000000000,4.0));
#305=DIRECTION('',(0.0,-1.0,0.0));
#306=DIRECTION('',(0.0,0.0,-1.0));
#307=AXIS2_PLACEMENT_3D('',#304,#305,#306);
#308=CIRCLE('',#307,4.0);
#309=EDGE_CURVE('',#303,#293,#308,.T.);
#310=ORIENTED_EDGE('',*,*,#309,.F.);
#311=CARTESIAN_POINT('',(28.500000000000007,47.500000000000000,0.0));
#312=VERTEX_POINT('',#311);
#313=CARTESIAN_POINT('',(28.500000000000007,47.500000000000000,0.0));
#314=DIRECTION('',(0.0,-1.0,0.0));
#315=VECTOR('',#314,95.0);
#316=LINE('',#313,#315);
#317=EDGE_CURVE('',#312,#303,#316,.T.);
#318=ORIENTED_EDGE('',*,*,#317,.F.);
#319=CARTESIAN_POINT('',(28.500000000000014,47.500000000000000,4.0));
#320=DIRECTION('',(0.0,-1.0,0.0));
#321=DIRECTION('',(0.0,0.0,-1.0));
#322=AXIS2_PLACEMENT_3D('',#319,#320,#321);
#323=CIRCLE('',#322,4.0);
#324=EDGE_CURVE('',#312,#295,#323,.T.);
#325=ORIENTED_EDGE('',*,*,#324,.T.);
#326=EDGE_LOOP('',(#301,#310,#318,#325));
#327=FACE_OUTER_BOUND('',#326,.T.);
#328=ADVANCED_FACE('',(#327),#291,.T.);
#329=CARTESIAN_POINT('',(28.500000000000014,0.0,4.0));
#330=DIRECTION('',(0.0,-1.0,0.0));
#331=DIRECTION('',(0.0,0.0,-1.0));
#332=AXIS2_PLACEMENT_3D('',#329,#330,#331);
#333=CYLINDRICAL_SURFACE('',#332,2.0);
#334=CARTESIAN_POINT('',(30.500000000000011,47.500000000000000,4.000000000000002));
#335=VERTEX_POINT('',#334);
#336=CARTESIAN_POINT('',(30.500000000000007,-47.500000000000000,4.000000000000002));
#337=VERTEX_POINT('',#336);
#338=CARTESIAN_POINT('',(30.500000000000007,47.500000000000000,4.000000000000004));
#339=DIRECTION('',(0.0,-1.0,0.0));
#340=VECTOR('',#339,95.0);
#341=LINE('',#338,#340);
#342=EDGE_CURVE('',#335,#337,#341,.T.);
#343=ORIENTED_EDGE('',*,*,#342,.F.);
#344=CARTESIAN_POINT('',(28.500000000000014,47.500000000000000,4.0));
#345=DIRECTION('',(0.0,-1.0,0.0));
#346=DIRECTION('',(0.0,0.0,-1.0));
#347=AXIS2_PLACEMENT_3D('',#344,#345,#346);
#348=CIRCLE('',#347,2.0);
#349=EDGE_CURVE('',#265,#335,#348,.T.);
#350=ORIENTED_EDGE('',*,*,#349,.F.);
#351=ORIENTED_EDGE('',*,*,#270,.F.);
#352=CARTESIAN_POINT('',(28.500000000000014,-47.500000000000000,4.0));
#353=DIRECTION('',(0.0,-1.0,0.0));
#354=DIRECTION('',(0.0,0.0,-1.0));
#355=AXIS2_PLACEMENT_3D('',#352,#353,#354);
#356=CIRCLE('',#355,2.0);
#357=EDGE_CURVE('',#257,#337,#356,.T.);
#358=ORIENTED_EDGE('',*,*,#357,.T.);
#359=EDGE_LOOP('',(#343,#350,#351,#358));
#360=FACE_OUTER_BOUND('',#359,.T.);
#361=ADVANCED_FACE('',(#360),#333,.F.);
#362=CARTESIAN_POINT('',(0.0,1.268087E-016,0.0));
#363=DIRECTION('',(0.0,0.0,1.0));
#364=DIRECTION('',(1.0,0.0,0.0));
#365=AXIS2_PLACEMENT_3D('',#362,#363,#364);
#366=PLANE('',#365);
#367=ORIENTED_EDGE('',*,*,#196,.T.);
#368=CARTESIAN_POINT('',(-28.500000000000007,47.500000000000000,0.0));
#369=DIRECTION('',(1.0,0.0,0.0));
#370=VECTOR('',#369,57.000000000000014);
#371=LINE('',#368,#370);
#372=EDGE_CURVE('',#182,#312,#371,.T.);
#373=ORIENTED_EDGE('',*,*,#372,.T.);
#374=ORIENTED_EDGE('',*,*,#317,.T.);
#375=CARTESIAN_POINT('',(28.500000000000007,-47.500000000000000,0.0));
#376=DIRECTION('',(-1.0,0.0,0.0));
#377=VECTOR('',#376,57.000000000000014);
#378=LINE('',#375,#377);
#379=EDGE_CURVE('',#303,#191,#378,.T.);
#380=ORIENTED_EDGE('',*,*,#379,.T.);
#381=EDGE_LOOP('',(#367,#373,#374,#380));
#382=FACE_OUTER_BOUND('',#381,.T.);
#383=ORIENTED_EDGE('',*,*,#112,.T.);
#384=EDGE_LOOP('',(#383));
#385=FACE_BOUND('',#384,.T.);
#386=ORIENTED_EDGE('',*,*,#161,.T.);
#387=EDGE_LOOP('',(#386));
#388=FACE_BOUND('',#387,.T.);
#389=ADVANCED_FACE('',(#382,#385,#388),#366,.F.);
#390=CARTESIAN_POINT('',(30.500000000000007,0.0,26.000000000000007));
#391=DIRECTION('',(1.0,0.0,0.0));
#392=DIRECTION('',(0.0,0.0,-1.0));
#393=AXIS2_PLACEMENT_3D('',#390,#391,#392);
#394=PLANE('',#393);
#395=ORIENTED_EDGE('',*,*,#342,.T.);
#396=CARTESIAN_POINT('',(30.500000000000004,-47.500000000000000,52.0));
#397=VERTEX_POINT('',#396);
#398=CARTESIAN_POINT('',(30.500000000000004,-47.500000000000000,52.0));
#399=DIRECTION('',(0.0,0.0,-1.0));
#400=VECTOR('',#399,48.0);
#401=LINE('',#398,#400);
#402=EDGE_CURVE('',#397,#337,#401,.T.);
#403=ORIENTED_EDGE('',*,*,#402,.F.);
#404=CARTESIAN_POINT('',(30.500000000000004,47.500000000000000,52.0));
#405=VERTEX_POINT('',#404);
#406=CARTESIAN_POINT('',(30.500000000000004,47.500000000000000,52.0));
#407=DIRECTION('',(0.0,-1.0,0.0));
#408=VECTOR('',#407,95.0);
#409=LINE('',#406,#408);
#410=EDGE_CURVE('',#405,#397,#409,.T.);
#411=ORIENTED_EDGE('',*,*,#410,.F.);
#412=CARTESIAN_POINT('',(30.500000000000007,47.500000000000000,4.000000000000002));
#413=DIRECTION('',(0.0,0.0,1.0));
#414=VECTOR('',#413,48.0);
#415=LINE('',#412,#414);
#416=EDGE_CURVE('',#335,#405,#415,.T.);
#417=ORIENTED_EDGE('',*,*,#416,.F.);
#418=EDGE_LOOP('',(#395,#403,#411,#417));
#419=FACE_OUTER_BOUND('',#418,.T.);
#420=ADVANCED_FACE('',(#419),#394,.F.);
#421=CARTESIAN_POINT('',(30.500000000000004,-47.500000000000000,52.0));
#422=DIRECTION('',(0.0,0.0,1.0));
#423=DIRECTION('',(1.0,0.0,0.0));
#424=AXIS2_PLACEMENT_3D('',#421,#422,#423);
#425=PLANE('',#424);
#426=CARTESIAN_POINT('',(32.500000000000007,-47.500000000000000,52.0));
#427=VERTEX_POINT('',#426);
#428=CARTESIAN_POINT('',(32.500000000000007,47.500000000000000,52.0));
#429=VERTEX_POINT('',#428);
#430=CARTESIAN_POINT('',(32.500000000000007,-47.500000000000000,52.0));
#431=DIRECTION('',(0.0,1.0,0.0));
#432=VECTOR('',#431,95.0);
#433=LINE('',#430,#432);
#434=EDGE_CURVE('',#427,#429,#433,.T.);
#435=ORIENTED_EDGE('',*,*,#434,.T.);
#436=CARTESIAN_POINT('',(30.500000000000004,47.500000000000000,52.0));
#437=DIRECTION('',(1.0,0.0,0.0));
#438=VECTOR('',#437,2.000000000000004);
#439=LINE('',#436,#438);
#440=EDGE_CURVE('',#405,#429,#439,.T.);
#441=ORIENTED_EDGE('',*,*,#440,.F.);
#442=ORIENTED_EDGE('',*,*,#410,.T.);
#443=CARTESIAN_POINT('',(30.500000000000004,-47.500000000000000,52.0));
#444=DIRECTION('',(1.0,0.0,0.0));
#445=VECTOR('',#444,2.000000000000004);
#446=LINE('',#443,#445);
#447=EDGE_CURVE('',#397,#427,#446,.T.);
#448=ORIENTED_EDGE('',*,*,#447,.T.);
#449=EDGE_LOOP('',(#435,#441,#442,#448));
#450=FACE_OUTER_BOUND('',#449,.T.);
#451=ADVANCED_FACE('',(#450),#425,.T.);
#452=CARTESIAN_POINT('',(32.500000000000007,0.0,26.000000000000007));
#453=DIRECTION('',(1.0,0.0,0.0));
#454=DIRECTION('',(0.0,0.0,-1.0));
#455=AXIS2_PLACEMENT_3D('',#452,#453,#454);
#456=PLANE('',#455);
#457=ORIENTED_EDGE('',*,*,#300,.T.);
#458=CARTESIAN_POINT('',(32.500000000000007,47.500000000000000,52.0));
#459=DIRECTION('',(0.0,0.0,-1.0));
#460=VECTOR('',#459,48.0);
#461=LINE('',#458,#460);
#462=EDGE_CURVE('',#429,#295,#461,.T.);
#463=ORIENTED_EDGE('',*,*,#462,.F.);
#464=ORIENTED_EDGE('',*,*,#434,.F.);
#465=CARTESIAN_POINT('',(32.500000000000007,-47.500000000000000,4.0));
#466=DIRECTION('',(0.0,0.0,1.0));
#467=VECTOR('',#466,48.0);
#468=LINE('',#465,#467);
#469=EDGE_CURVE('',#293,#427,#468,.T.);
#470=ORIENTED_EDGE('',*,*,#469,.F.);
#471=EDGE_LOOP('',(#457,#463,#464,#470));
#472=FACE_OUTER_BOUND('',#471,.T.);
#473=ADVANCED_FACE('',(#472),#456,.T.);
#474=CARTESIAN_POINT('',(-30.500000000000004,-47.500000000000000,52.0));
#475=DIRECTION('',(0.0,-1.0,0.0));
#476=DIRECTION('',(0.0,0.0,-1.0));
#477=AXIS2_PLACEMENT_3D('',#474,#475,#476);
#478=PLANE('',#477);
#479=CARTESIAN_POINT('',(-30.500000000000004,-47.500000000000000,52.0));
#480=VERTEX_POINT('',#479);
#481=CARTESIAN_POINT('',(-30.500000000000007,-47.500000000000000,4.000000000000002));
#482=DIRECTION('',(0.0,0.0,1.0));
#483=VECTOR('',#482,48.0);
#484=LINE('',#481,#483);
#485=EDGE_CURVE('',#214,#480,#484,.T.);
#486=ORIENTED_EDGE('',*,*,#485,.T.);
#487=CARTESIAN_POINT('',(-32.500000000000007,-47.500000000000000,52.0));
#488=VERTEX_POINT('',#487);
#489=CARTESIAN_POINT('',(-30.500000000000004,-47.500000000000000,52.0));
#490=DIRECTION('',(-1.0,0.0,0.0));
#491=VECTOR('',#490,2.000000000000004);
#492=LINE('',#489,#491);
#493=EDGE_CURVE('',#480,#488,#492,.T.);
#494=ORIENTED_EDGE('',*,*,#493,.T.);
#495=CARTESIAN_POINT('',(-32.500000000000007,-47.500000000000000,52.0));
#496=DIRECTION('',(0.0,0.0,-1.0));
#497=VECTOR('',#496,48.0);
#498=LINE('',#495,#497);
#499=EDGE_CURVE('',#488,#174,#498,.T.);
#500=ORIENTED_EDGE('',*,*,#499,.T.);
#501=ORIENTED_EDGE('',*,*,#203,.F.);
#502=ORIENTED_EDGE('',*,*,#379,.F.);
#503=ORIENTED_EDGE('',*,*,#309,.T.);
#504=ORIENTED_EDGE('',*,*,#469,.T.);
#505=ORIENTED_EDGE('',*,*,#447,.F.);
#506=ORIENTED_EDGE('',*,*,#402,.T.);
#507=ORIENTED_EDGE('',*,*,#357,.F.);
#508=ORIENTED_EDGE('',*,*,#262,.T.);
#509=ORIENTED_EDGE('',*,*,#230,.T.);
#510=EDGE_LOOP('',(#486,#494,#500,#501,#502,#503,#504,#505,#506,#507,#508,#509));
#511=FACE_OUTER_BOUND('',#510,.T.);
#512=ADVANCED_FACE('',(#511),#478,.T.);
#513=CARTESIAN_POINT('',(-30.500000000000007,0.0,26.000000000000007));
#514=DIRECTION('',(1.0,0.0,0.0));
#515=DIRECTION('',(0.0,0.0,-1.0));
#516=AXIS2_PLACEMENT_3D('',#513,#514,#515);
#517=PLANE('',#516);
#518=ORIENTED_EDGE('',*,*,#221,.T.);
#519=CARTESIAN_POINT('',(-30.500000000000004,47.500000000000000,52.0));
#520=VERTEX_POINT('',#519);
#521=CARTESIAN_POINT('',(-30.500000000000004,47.500000000000000,52.0));
#522=DIRECTION('',(0.0,0.0,-1.0));
#523=VECTOR('',#522,48.0);
#524=LINE('',#521,#523);
#525=EDGE_CURVE('',#520,#216,#524,.T.);
#526=ORIENTED_EDGE('',*,*,#525,.F.);
#527=CARTESIAN_POINT('',(-30.500000000000004,-47.500000000000000,52.0));
#528=DIRECTION('',(0.0,1.0,0.0));
#529=VECTOR('',#528,95.0);
#530=LINE('',#527,#529);
#531=EDGE_CURVE('',#480,#520,#530,.T.);
#532=ORIENTED_EDGE('',*,*,#531,.F.);
#533=ORIENTED_EDGE('',*,*,#485,.F.);
#534=EDGE_LOOP('',(#518,#526,#532,#533));
#535=FACE_OUTER_BOUND('',#534,.T.);
#536=ADVANCED_FACE('',(#535),#517,.T.);
#537=CARTESIAN_POINT('',(-30.500000000000007,47.500000000000000,0.0));
#538=DIRECTION('',(0.0,1.0,0.0));
#539=DIRECTION('',(0.0,0.0,1.0));
#540=AXIS2_PLACEMENT_3D('',#537,#538,#539);
#541=PLANE('',#540);
#542=CARTESIAN_POINT('',(-32.500000000000007,47.500000000000000,52.0));
#543=VERTEX_POINT('',#542);
#544=CARTESIAN_POINT('',(-32.500000000000007,47.500000000000000,4.0));
#545=DIRECTION('',(0.0,0.0,1.0));
#546=VECTOR('',#545,48.0);
#547=LINE('',#544,#546);
#548=EDGE_CURVE('',#172,#543,#547,.T.);
#549=ORIENTED_EDGE('',*,*,#548,.T.);
#550=CARTESIAN_POINT('',(-30.500000000000004,47.500000000000000,52.0));
#551=DIRECTION('',(-1.0,0.0,0.0));
#552=VECTOR('',#551,2.000000000000004);
#553=LINE('',#550,#552);
#554=EDGE_CURVE('',#520,#543,#553,.T.);
#555=ORIENTED_EDGE('',*,*,#554,.F.);
#556=ORIENTED_EDGE('',*,*,#525,.T.);
#557=ORIENTED_EDGE('',*,*,#245,.F.);
#558=ORIENTED_EDGE('',*,*,#276,.T.);
#559=ORIENTED_EDGE('',*,*,#349,.T.);
#560=ORIENTED_EDGE('',*,*,#416,.T.);
#561=ORIENTED_EDGE('',*,*,#440,.T.);
#562=ORIENTED_EDGE('',*,*,#462,.T.);
#563=ORIENTED_EDGE('',*,*,#324,.F.);
#564=ORIENTED_EDGE('',*,*,#372,.F.);
#565=ORIENTED_EDGE('',*,*,#188,.T.);
#566=EDGE_LOOP('',(#549,#555,#556,#557,#558,#559,#560,#561,#562,#563,#564,#565));
#567=FACE_OUTER_BOUND('',#566,.T.);
#568=ADVANCED_FACE('',(#567),#541,.T.);
#569=CARTESIAN_POINT('',(-30.500000000000004,47.500000000000000,52.0));
#570=DIRECTION('',(0.0,0.0,1.0));
#571=DIRECTION('',(1.0,0.0,0.0));
#572=AXIS2_PLACEMENT_3D('',#569,#570,#571);
#573=PLANE('',#572);
#574=CARTESIAN_POINT('',(-32.500000000000007,47.500000000000000,52.0));
#575=DIRECTION('',(0.0,-1.0,0.0));
#576=VECTOR('',#575,95.0);
#577=LINE('',#574,#576);
#578=EDGE_CURVE('',#543,#488,#577,.T.);
#579=ORIENTED_EDGE('',*,*,#578,.T.);
#580=ORIENTED_EDGE('',*,*,#493,.F.);
#581=ORIENTED_EDGE('',*,*,#531,.T.);
#582=ORIENTED_EDGE('',*,*,#554,.T.);
#583=EDGE_LOOP('',(#579,#580,#581,#582));
#584=FACE_OUTER_BOUND('',#583,.T.);
#585=ADVANCED_FACE('',(#584),#573,.T.);
#586=CARTESIAN_POINT('',(-32.500000000000007,0.0,26.000000000000007));
#587=DIRECTION('',(1.0,0.0,0.0));
#588=DIRECTION('',(0.0,0.0,-1.0));
#589=AXIS2_PLACEMENT_3D('',#586,#587,#588);
#590=PLANE('',#589);
#591=ORIENTED_EDGE('',*,*,#179,.T.);
#592=ORIENTED_EDGE('',*,*,#499,.F.);
#593=ORIENTED_EDGE('',*,*,#578,.F.);
#594=ORIENTED_EDGE('',*,*,#548,.F.);
#595=EDGE_LOOP('',(#591,#592,#593,#594));
#596=FACE_OUTER_BOUND('',#595,.T.);
#597=ADVANCED_FACE('',(#596),#590,.F.);
#598=CLOSED_SHELL('',(#116,#165,#207,#249,#286,#328,#361,#389,#420,#451,#473,#512,#536,#568,#585,#597));
#599=MANIFOLD_SOLID_BREP('Solide1',#598);
#600=COLOUR_RGB('Par dfaut',0.752941012382507,0.752941012382507,0.752941012382507);
#601=FILL_AREA_STYLE_COLOUR('Par dfaut',#600);
#602=FILL_AREA_STYLE('Par dfaut',(#601));
#603=SURFACE_STYLE_FILL_AREA(#602);
#604=SURFACE_SIDE_STYLE('Par dfaut',(#603));
#605=SURFACE_STYLE_USAGE(.BOTH.,#604);
#606=PRESENTATION_STYLE_ASSIGNMENT((#605));
#607=STYLED_ITEM('',(#606),#599);
#608=MECHANICAL_DESIGN_GEOMETRIC_PRESENTATION_REPRESENTATION('',(#607),#36);
#609=ADVANCED_BREP_SHAPE_REPRESENTATION('ABSR',(#599),#36);
#610=SHAPE_REPRESENTATION_RELATIONSHIP('SRR','None',#609,#41);
ENDSEC;
END-ISO-10303-21;
