ISO-10303-21;
HEADER;
/* Generated by software containing ST-Developer
 * from STEP Tools, Inc. (www.steptools.com) 
 */

FILE_DESCRIPTION(
/* description */ (''),
/* implementation_level */ '2;1');

FILE_NAME(
/* name */ 
'R:\\BE\\Inventor\\Plans commerciaux\\Plans pour conversion\\STEP\\111
0_400.stp',
/* time_stamp */ '2022-02-02T09:19:59+01:00',
/* author */ ('Giuliano'),
/* organization */ (''),
/* preprocessor_version */ 'ST-DEVELOPER v18.1',
/* originating_system */ 'Autodesk Inventor 2021',
/* authorisation */ '');

FILE_SCHEMA (('AUTOMOTIVE_DESIGN { 1 0 10303 214 3 1 1 }'));
ENDSEC;

DATA;
#10=MECHANICAL_DESIGN_GEOMETRIC_PRESENTATION_REPRESENTATION('',(#13),#461);
#11=SHAPE_REPRESENTATION_RELATIONSHIP('SRR','None',#468,#12);
#12=ADVANCED_BREP_SHAPE_REPRESENTATION('',(#14),#460);
#13=STYLED_ITEM('',(#477),#14);
#14=MANIFOLD_SOLID_BREP('Solide1',#267);
#15=CIRCLE('',#289,1.25);
#16=CIRCLE('',#290,1.25);
#17=CIRCLE('',#293,1.25);
#18=CIRCLE('',#294,1.25);
#19=CIRCLE('',#299,0.5);
#20=CIRCLE('',#300,0.5);
#21=CIRCLE('',#303,0.5);
#22=CIRCLE('',#304,0.5);
#23=CYLINDRICAL_SURFACE('',#288,1.25);
#24=CYLINDRICAL_SURFACE('',#292,1.25);
#25=CYLINDRICAL_SURFACE('',#298,0.5);
#26=CYLINDRICAL_SURFACE('',#302,0.5);
#27=FACE_OUTER_BOUND('',#41,.T.);
#28=FACE_OUTER_BOUND('',#42,.T.);
#29=FACE_OUTER_BOUND('',#43,.T.);
#30=FACE_OUTER_BOUND('',#44,.T.);
#31=FACE_OUTER_BOUND('',#45,.T.);
#32=FACE_OUTER_BOUND('',#46,.T.);
#33=FACE_OUTER_BOUND('',#47,.T.);
#34=FACE_OUTER_BOUND('',#48,.T.);
#35=FACE_OUTER_BOUND('',#49,.T.);
#36=FACE_OUTER_BOUND('',#50,.T.);
#37=FACE_OUTER_BOUND('',#51,.T.);
#38=FACE_OUTER_BOUND('',#52,.T.);
#39=FACE_OUTER_BOUND('',#53,.T.);
#40=FACE_OUTER_BOUND('',#54,.T.);
#41=EDGE_LOOP('',(#171,#172,#173,#174));
#42=EDGE_LOOP('',(#175,#176,#177,#178));
#43=EDGE_LOOP('',(#179,#180,#181,#182));
#44=EDGE_LOOP('',(#183,#184,#185,#186));
#45=EDGE_LOOP('',(#187,#188,#189,#190));
#46=EDGE_LOOP('',(#191,#192,#193,#194));
#47=EDGE_LOOP('',(#195,#196,#197,#198));
#48=EDGE_LOOP('',(#199,#200,#201,#202));
#49=EDGE_LOOP('',(#203,#204,#205,#206));
#50=EDGE_LOOP('',(#207,#208,#209,#210));
#51=EDGE_LOOP('',(#211,#212,#213,#214));
#52=EDGE_LOOP('',(#215,#216,#217,#218));
#53=EDGE_LOOP('',(#219,#220,#221,#222,#223,#224,#225,#226,#227,#228,#229,
#230));
#54=EDGE_LOOP('',(#231,#232,#233,#234,#235,#236,#237,#238,#239,#240,#241,
#242));
#55=LINE('',#387,#83);
#56=LINE('',#389,#84);
#57=LINE('',#391,#85);
#58=LINE('',#392,#86);
#59=LINE('',#397,#87);
#60=LINE('',#401,#88);
#61=LINE('',#403,#89);
#62=LINE('',#404,#90);
#63=LINE('',#409,#91);
#64=LINE('',#413,#92);
#65=LINE('',#415,#93);
#66=LINE('',#416,#94);
#67=LINE('',#419,#95);
#68=LINE('',#421,#96);
#69=LINE('',#422,#97);
#70=LINE('',#425,#98);
#71=LINE('',#427,#99);
#72=LINE('',#428,#100);
#73=LINE('',#433,#101);
#74=LINE('',#437,#102);
#75=LINE('',#439,#103);
#76=LINE('',#440,#104);
#77=LINE('',#445,#105);
#78=LINE('',#449,#106);
#79=LINE('',#451,#107);
#80=LINE('',#452,#108);
#81=LINE('',#454,#109);
#82=LINE('',#455,#110);
#83=VECTOR('',#313,10.);
#84=VECTOR('',#314,10.);
#85=VECTOR('',#315,10.);
#86=VECTOR('',#316,10.);
#87=VECTOR('',#321,10.);
#88=VECTOR('',#326,10.);
#89=VECTOR('',#327,10.);
#90=VECTOR('',#328,10.);
#91=VECTOR('',#333,10.);
#92=VECTOR('',#338,10.);
#93=VECTOR('',#339,10.);
#94=VECTOR('',#340,10.);
#95=VECTOR('',#343,10.);
#96=VECTOR('',#344,10.);
#97=VECTOR('',#345,10.);
#98=VECTOR('',#348,10.);
#99=VECTOR('',#349,10.);
#100=VECTOR('',#350,10.);
#101=VECTOR('',#355,10.);
#102=VECTOR('',#360,10.);
#103=VECTOR('',#361,10.);
#104=VECTOR('',#362,10.);
#105=VECTOR('',#367,10.);
#106=VECTOR('',#372,10.);
#107=VECTOR('',#373,10.);
#108=VECTOR('',#374,10.);
#109=VECTOR('',#377,10.);
#110=VECTOR('',#378,10.);
#111=VERTEX_POINT('',#385);
#112=VERTEX_POINT('',#386);
#113=VERTEX_POINT('',#388);
#114=VERTEX_POINT('',#390);
#115=VERTEX_POINT('',#394);
#116=VERTEX_POINT('',#396);
#117=VERTEX_POINT('',#400);
#118=VERTEX_POINT('',#402);
#119=VERTEX_POINT('',#406);
#120=VERTEX_POINT('',#408);
#121=VERTEX_POINT('',#412);
#122=VERTEX_POINT('',#414);
#123=VERTEX_POINT('',#418);
#124=VERTEX_POINT('',#420);
#125=VERTEX_POINT('',#424);
#126=VERTEX_POINT('',#426);
#127=VERTEX_POINT('',#430);
#128=VERTEX_POINT('',#432);
#129=VERTEX_POINT('',#436);
#130=VERTEX_POINT('',#438);
#131=VERTEX_POINT('',#442);
#132=VERTEX_POINT('',#444);
#133=VERTEX_POINT('',#448);
#134=VERTEX_POINT('',#450);
#135=EDGE_CURVE('',#111,#112,#55,.T.);
#136=EDGE_CURVE('',#113,#112,#56,.T.);
#137=EDGE_CURVE('',#114,#113,#57,.T.);
#138=EDGE_CURVE('',#114,#111,#58,.T.);
#139=EDGE_CURVE('',#112,#115,#15,.T.);
#140=EDGE_CURVE('',#116,#115,#59,.T.);
#141=EDGE_CURVE('',#113,#116,#16,.T.);
#142=EDGE_CURVE('',#115,#117,#60,.T.);
#143=EDGE_CURVE('',#118,#117,#61,.T.);
#144=EDGE_CURVE('',#116,#118,#62,.T.);
#145=EDGE_CURVE('',#117,#119,#17,.T.);
#146=EDGE_CURVE('',#120,#119,#63,.T.);
#147=EDGE_CURVE('',#118,#120,#18,.T.);
#148=EDGE_CURVE('',#119,#121,#64,.T.);
#149=EDGE_CURVE('',#122,#121,#65,.T.);
#150=EDGE_CURVE('',#120,#122,#66,.T.);
#151=EDGE_CURVE('',#121,#123,#67,.T.);
#152=EDGE_CURVE('',#124,#123,#68,.T.);
#153=EDGE_CURVE('',#122,#124,#69,.T.);
#154=EDGE_CURVE('',#123,#125,#70,.T.);
#155=EDGE_CURVE('',#126,#125,#71,.T.);
#156=EDGE_CURVE('',#124,#126,#72,.T.);
#157=EDGE_CURVE('',#125,#127,#19,.T.);
#158=EDGE_CURVE('',#128,#127,#73,.T.);
#159=EDGE_CURVE('',#126,#128,#20,.T.);
#160=EDGE_CURVE('',#127,#129,#74,.T.);
#161=EDGE_CURVE('',#130,#129,#75,.T.);
#162=EDGE_CURVE('',#128,#130,#76,.T.);
#163=EDGE_CURVE('',#129,#131,#21,.T.);
#164=EDGE_CURVE('',#132,#131,#77,.T.);
#165=EDGE_CURVE('',#130,#132,#22,.T.);
#166=EDGE_CURVE('',#131,#133,#78,.T.);
#167=EDGE_CURVE('',#134,#133,#79,.T.);
#168=EDGE_CURVE('',#132,#134,#80,.T.);
#169=EDGE_CURVE('',#133,#111,#81,.T.);
#170=EDGE_CURVE('',#134,#114,#82,.T.);
#171=ORIENTED_EDGE('',*,*,#135,.T.);
#172=ORIENTED_EDGE('',*,*,#136,.F.);
#173=ORIENTED_EDGE('',*,*,#137,.F.);
#174=ORIENTED_EDGE('',*,*,#138,.T.);
#175=ORIENTED_EDGE('',*,*,#139,.T.);
#176=ORIENTED_EDGE('',*,*,#140,.F.);
#177=ORIENTED_EDGE('',*,*,#141,.F.);
#178=ORIENTED_EDGE('',*,*,#136,.T.);
#179=ORIENTED_EDGE('',*,*,#142,.T.);
#180=ORIENTED_EDGE('',*,*,#143,.F.);
#181=ORIENTED_EDGE('',*,*,#144,.F.);
#182=ORIENTED_EDGE('',*,*,#140,.T.);
#183=ORIENTED_EDGE('',*,*,#145,.T.);
#184=ORIENTED_EDGE('',*,*,#146,.F.);
#185=ORIENTED_EDGE('',*,*,#147,.F.);
#186=ORIENTED_EDGE('',*,*,#143,.T.);
#187=ORIENTED_EDGE('',*,*,#148,.T.);
#188=ORIENTED_EDGE('',*,*,#149,.F.);
#189=ORIENTED_EDGE('',*,*,#150,.F.);
#190=ORIENTED_EDGE('',*,*,#146,.T.);
#191=ORIENTED_EDGE('',*,*,#151,.T.);
#192=ORIENTED_EDGE('',*,*,#152,.F.);
#193=ORIENTED_EDGE('',*,*,#153,.F.);
#194=ORIENTED_EDGE('',*,*,#149,.T.);
#195=ORIENTED_EDGE('',*,*,#154,.T.);
#196=ORIENTED_EDGE('',*,*,#155,.F.);
#197=ORIENTED_EDGE('',*,*,#156,.F.);
#198=ORIENTED_EDGE('',*,*,#152,.T.);
#199=ORIENTED_EDGE('',*,*,#157,.T.);
#200=ORIENTED_EDGE('',*,*,#158,.F.);
#201=ORIENTED_EDGE('',*,*,#159,.F.);
#202=ORIENTED_EDGE('',*,*,#155,.T.);
#203=ORIENTED_EDGE('',*,*,#160,.T.);
#204=ORIENTED_EDGE('',*,*,#161,.F.);
#205=ORIENTED_EDGE('',*,*,#162,.F.);
#206=ORIENTED_EDGE('',*,*,#158,.T.);
#207=ORIENTED_EDGE('',*,*,#163,.T.);
#208=ORIENTED_EDGE('',*,*,#164,.F.);
#209=ORIENTED_EDGE('',*,*,#165,.F.);
#210=ORIENTED_EDGE('',*,*,#161,.T.);
#211=ORIENTED_EDGE('',*,*,#166,.T.);
#212=ORIENTED_EDGE('',*,*,#167,.F.);
#213=ORIENTED_EDGE('',*,*,#168,.F.);
#214=ORIENTED_EDGE('',*,*,#164,.T.);
#215=ORIENTED_EDGE('',*,*,#169,.T.);
#216=ORIENTED_EDGE('',*,*,#138,.F.);
#217=ORIENTED_EDGE('',*,*,#170,.F.);
#218=ORIENTED_EDGE('',*,*,#167,.T.);
#219=ORIENTED_EDGE('',*,*,#135,.F.);
#220=ORIENTED_EDGE('',*,*,#169,.F.);
#221=ORIENTED_EDGE('',*,*,#166,.F.);
#222=ORIENTED_EDGE('',*,*,#163,.F.);
#223=ORIENTED_EDGE('',*,*,#160,.F.);
#224=ORIENTED_EDGE('',*,*,#157,.F.);
#225=ORIENTED_EDGE('',*,*,#154,.F.);
#226=ORIENTED_EDGE('',*,*,#151,.F.);
#227=ORIENTED_EDGE('',*,*,#148,.F.);
#228=ORIENTED_EDGE('',*,*,#145,.F.);
#229=ORIENTED_EDGE('',*,*,#142,.F.);
#230=ORIENTED_EDGE('',*,*,#139,.F.);
#231=ORIENTED_EDGE('',*,*,#170,.T.);
#232=ORIENTED_EDGE('',*,*,#137,.T.);
#233=ORIENTED_EDGE('',*,*,#141,.T.);
#234=ORIENTED_EDGE('',*,*,#144,.T.);
#235=ORIENTED_EDGE('',*,*,#147,.T.);
#236=ORIENTED_EDGE('',*,*,#150,.T.);
#237=ORIENTED_EDGE('',*,*,#153,.T.);
#238=ORIENTED_EDGE('',*,*,#156,.T.);
#239=ORIENTED_EDGE('',*,*,#159,.T.);
#240=ORIENTED_EDGE('',*,*,#162,.T.);
#241=ORIENTED_EDGE('',*,*,#165,.T.);
#242=ORIENTED_EDGE('',*,*,#168,.T.);
#243=PLANE('',#287);
#244=PLANE('',#291);
#245=PLANE('',#295);
#246=PLANE('',#296);
#247=PLANE('',#297);
#248=PLANE('',#301);
#249=PLANE('',#305);
#250=PLANE('',#306);
#251=PLANE('',#307);
#252=PLANE('',#308);
#253=ADVANCED_FACE('',(#27),#243,.T.);
#254=ADVANCED_FACE('',(#28),#23,.T.);
#255=ADVANCED_FACE('',(#29),#244,.T.);
#256=ADVANCED_FACE('',(#30),#24,.T.);
#257=ADVANCED_FACE('',(#31),#245,.T.);
#258=ADVANCED_FACE('',(#32),#246,.T.);
#259=ADVANCED_FACE('',(#33),#247,.T.);
#260=ADVANCED_FACE('',(#34),#25,.F.);
#261=ADVANCED_FACE('',(#35),#248,.T.);
#262=ADVANCED_FACE('',(#36),#26,.F.);
#263=ADVANCED_FACE('',(#37),#249,.T.);
#264=ADVANCED_FACE('',(#38),#250,.T.);
#265=ADVANCED_FACE('',(#39),#251,.T.);
#266=ADVANCED_FACE('',(#40),#252,.F.);
#267=CLOSED_SHELL('',(#253,#254,#255,#256,#257,#258,#259,#260,#261,#262,
#263,#264,#265,#266));
#268=DERIVED_UNIT_ELEMENT(#270,1.);
#269=DERIVED_UNIT_ELEMENT(#463,-3.);
#270=(
MASS_UNIT()
NAMED_UNIT(*)
SI_UNIT($,.GRAM.)
);
#271=DERIVED_UNIT((#268,#269));
#272=MEASURE_REPRESENTATION_ITEM('density measure',
POSITIVE_RATIO_MEASURE(1.),#271);
#273=PROPERTY_DEFINITION_REPRESENTATION(#278,#275);
#274=PROPERTY_DEFINITION_REPRESENTATION(#279,#276);
#275=REPRESENTATION('material name',(#277),#460);
#276=REPRESENTATION('density',(#272),#460);
#277=DESCRIPTIVE_REPRESENTATION_ITEM('G\X\E9n\X\E9rique','G\X\E9n\X\E9
rique');
#278=PROPERTY_DEFINITION('material property','material name',#470);
#279=PROPERTY_DEFINITION('material property','density of part',#470);
#280=DATE_TIME_ROLE('creation_date');
#281=APPLIED_DATE_AND_TIME_ASSIGNMENT(#282,#280,(#470));
#282=DATE_AND_TIME(#283,#284);
#283=CALENDAR_DATE(2003,8,7);
#284=LOCAL_TIME(0,0,0.,#285);
#285=COORDINATED_UNIVERSAL_TIME_OFFSET(0,0,.BEHIND.);
#286=AXIS2_PLACEMENT_3D('placement',#383,#309,#310);
#287=AXIS2_PLACEMENT_3D('',#384,#311,#312);
#288=AXIS2_PLACEMENT_3D('',#393,#317,#318);
#289=AXIS2_PLACEMENT_3D('',#395,#319,#320);
#290=AXIS2_PLACEMENT_3D('',#398,#322,#323);
#291=AXIS2_PLACEMENT_3D('',#399,#324,#325);
#292=AXIS2_PLACEMENT_3D('',#405,#329,#330);
#293=AXIS2_PLACEMENT_3D('',#407,#331,#332);
#294=AXIS2_PLACEMENT_3D('',#410,#334,#335);
#295=AXIS2_PLACEMENT_3D('',#411,#336,#337);
#296=AXIS2_PLACEMENT_3D('',#417,#341,#342);
#297=AXIS2_PLACEMENT_3D('',#423,#346,#347);
#298=AXIS2_PLACEMENT_3D('',#429,#351,#352);
#299=AXIS2_PLACEMENT_3D('',#431,#353,#354);
#300=AXIS2_PLACEMENT_3D('',#434,#356,#357);
#301=AXIS2_PLACEMENT_3D('',#435,#358,#359);
#302=AXIS2_PLACEMENT_3D('',#441,#363,#364);
#303=AXIS2_PLACEMENT_3D('',#443,#365,#366);
#304=AXIS2_PLACEMENT_3D('',#446,#368,#369);
#305=AXIS2_PLACEMENT_3D('',#447,#370,#371);
#306=AXIS2_PLACEMENT_3D('',#453,#375,#376);
#307=AXIS2_PLACEMENT_3D('',#456,#379,#380);
#308=AXIS2_PLACEMENT_3D('',#457,#381,#382);
#309=DIRECTION('axis',(0.,0.,1.));
#310=DIRECTION('refdir',(1.,0.,0.));
#311=DIRECTION('center_axis',(1.,0.,0.));
#312=DIRECTION('ref_axis',(0.,0.,-1.));
#313=DIRECTION('',(0.,-1.,0.));
#314=DIRECTION('',(0.,0.,1.));
#315=DIRECTION('',(0.,-1.,0.));
#316=DIRECTION('',(0.,0.,1.));
#317=DIRECTION('center_axis',(0.,0.,1.));
#318=DIRECTION('ref_axis',(0.,1.,0.));
#319=DIRECTION('center_axis',(0.,0.,-1.));
#320=DIRECTION('ref_axis',(0.,1.,0.));
#321=DIRECTION('',(0.,0.,1.));
#322=DIRECTION('center_axis',(0.,0.,-1.));
#323=DIRECTION('ref_axis',(0.,1.,0.));
#324=DIRECTION('center_axis',(0.,-1.,0.));
#325=DIRECTION('ref_axis',(0.,0.,-1.));
#326=DIRECTION('',(-1.,0.,0.));
#327=DIRECTION('',(0.,0.,1.));
#328=DIRECTION('',(-1.,0.,0.));
#329=DIRECTION('center_axis',(0.,0.,1.));
#330=DIRECTION('ref_axis',(1.,0.,0.));
#331=DIRECTION('center_axis',(0.,0.,-1.));
#332=DIRECTION('ref_axis',(1.,0.,0.));
#333=DIRECTION('',(0.,0.,1.));
#334=DIRECTION('center_axis',(0.,0.,-1.));
#335=DIRECTION('ref_axis',(1.,0.,0.));
#336=DIRECTION('center_axis',(-1.,0.,0.));
#337=DIRECTION('ref_axis',(0.,0.,1.));
#338=DIRECTION('',(0.,1.,0.));
#339=DIRECTION('',(0.,0.,1.));
#340=DIRECTION('',(0.,1.,0.));
#341=DIRECTION('center_axis',(0.,1.,0.));
#342=DIRECTION('ref_axis',(0.,0.,1.));
#343=DIRECTION('',(1.,0.,0.));
#344=DIRECTION('',(0.,0.,1.));
#345=DIRECTION('',(1.,0.,0.));
#346=DIRECTION('center_axis',(1.,0.,0.));
#347=DIRECTION('ref_axis',(0.,0.,-1.));
#348=DIRECTION('',(0.,-1.,0.));
#349=DIRECTION('',(0.,0.,1.));
#350=DIRECTION('',(0.,-1.,0.));
#351=DIRECTION('center_axis',(0.,0.,1.));
#352=DIRECTION('ref_axis',(-1.,0.,0.));
#353=DIRECTION('center_axis',(0.,0.,1.));
#354=DIRECTION('ref_axis',(-1.,0.,0.));
#355=DIRECTION('',(0.,0.,1.));
#356=DIRECTION('center_axis',(0.,0.,1.));
#357=DIRECTION('ref_axis',(-1.,0.,0.));
#358=DIRECTION('center_axis',(0.,1.,0.));
#359=DIRECTION('ref_axis',(0.,0.,1.));
#360=DIRECTION('',(1.,0.,0.));
#361=DIRECTION('',(0.,0.,1.));
#362=DIRECTION('',(1.,0.,0.));
#363=DIRECTION('center_axis',(0.,0.,1.));
#364=DIRECTION('ref_axis',(0.,-1.,0.));
#365=DIRECTION('center_axis',(0.,0.,1.));
#366=DIRECTION('ref_axis',(0.,-1.,0.));
#367=DIRECTION('',(0.,0.,1.));
#368=DIRECTION('center_axis',(0.,0.,1.));
#369=DIRECTION('ref_axis',(0.,-1.,0.));
#370=DIRECTION('center_axis',(-1.,0.,0.));
#371=DIRECTION('ref_axis',(0.,0.,1.));
#372=DIRECTION('',(0.,1.,0.));
#373=DIRECTION('',(0.,0.,1.));
#374=DIRECTION('',(0.,1.,0.));
#375=DIRECTION('center_axis',(0.,1.,0.));
#376=DIRECTION('ref_axis',(0.,0.,1.));
#377=DIRECTION('',(1.,0.,0.));
#378=DIRECTION('',(1.,0.,0.));
#379=DIRECTION('center_axis',(0.,0.,1.));
#380=DIRECTION('ref_axis',(1.,0.,0.));
#381=DIRECTION('center_axis',(0.,0.,1.));
#382=DIRECTION('ref_axis',(1.,0.,0.));
#383=CARTESIAN_POINT('',(0.,0.,0.));
#384=CARTESIAN_POINT('Origin',(783.738355800131,167.529471848787,0.));
#385=CARTESIAN_POINT('',(783.738355800131,167.529471848787,4000.));
#386=CARTESIAN_POINT('',(783.738355800131,138.779471848787,4000.));
#387=CARTESIAN_POINT('',(783.738355800131,167.529471848787,4000.));
#388=CARTESIAN_POINT('',(783.738355800131,138.779471848787,0.));
#389=CARTESIAN_POINT('',(783.738355800131,138.779471848787,0.));
#390=CARTESIAN_POINT('',(783.738355800131,167.529471848787,0.));
#391=CARTESIAN_POINT('',(783.738355800131,167.529471848787,0.));
#392=CARTESIAN_POINT('',(783.738355800131,167.529471848787,0.));
#393=CARTESIAN_POINT('Origin',(782.488355800131,138.779471848787,0.));
#394=CARTESIAN_POINT('',(782.488355800131,137.529471848787,4000.));
#395=CARTESIAN_POINT('Origin',(782.488355800131,138.779471848787,4000.));
#396=CARTESIAN_POINT('',(782.488355800131,137.529471848787,0.));
#397=CARTESIAN_POINT('',(782.488355800131,137.529471848787,0.));
#398=CARTESIAN_POINT('Origin',(782.488355800131,138.779471848787,0.));
#399=CARTESIAN_POINT('Origin',(782.488355800131,137.529471848787,0.));
#400=CARTESIAN_POINT('',(754.988355800131,137.529471848787,4000.));
#401=CARTESIAN_POINT('',(782.488355800131,137.529471848787,4000.));
#402=CARTESIAN_POINT('',(754.988355800131,137.529471848787,0.));
#403=CARTESIAN_POINT('',(754.988355800131,137.529471848787,0.));
#404=CARTESIAN_POINT('',(782.488355800131,137.529471848787,0.));
#405=CARTESIAN_POINT('Origin',(754.988355800131,138.779471848787,0.));
#406=CARTESIAN_POINT('',(753.738355800131,138.779471848787,4000.));
#407=CARTESIAN_POINT('Origin',(754.988355800131,138.779471848787,4000.));
#408=CARTESIAN_POINT('',(753.738355800131,138.779471848787,0.));
#409=CARTESIAN_POINT('',(753.738355800131,138.779471848787,0.));
#410=CARTESIAN_POINT('Origin',(754.988355800131,138.779471848787,0.));
#411=CARTESIAN_POINT('Origin',(753.738355800131,138.779471848787,0.));
#412=CARTESIAN_POINT('',(753.738355800131,167.529471848787,4000.));
#413=CARTESIAN_POINT('',(753.738355800131,138.779471848787,4000.));
#414=CARTESIAN_POINT('',(753.738355800131,167.529471848787,0.));
#415=CARTESIAN_POINT('',(753.738355800131,167.529471848787,0.));
#416=CARTESIAN_POINT('',(753.738355800131,138.779471848787,0.));
#417=CARTESIAN_POINT('Origin',(753.738355800131,167.529471848787,0.));
#418=CARTESIAN_POINT('',(755.238355800131,167.529471848787,4000.));
#419=CARTESIAN_POINT('',(753.738355800131,167.529471848787,4000.));
#420=CARTESIAN_POINT('',(755.238355800131,167.529471848787,0.));
#421=CARTESIAN_POINT('',(755.238355800131,167.529471848787,0.));
#422=CARTESIAN_POINT('',(753.738355800131,167.529471848787,0.));
#423=CARTESIAN_POINT('Origin',(755.238355800131,167.529471848787,0.));
#424=CARTESIAN_POINT('',(755.238355800131,139.529471848787,4000.));
#425=CARTESIAN_POINT('',(755.238355800131,167.529471848787,4000.));
#426=CARTESIAN_POINT('',(755.238355800131,139.529471848787,0.));
#427=CARTESIAN_POINT('',(755.238355800131,139.529471848787,0.));
#428=CARTESIAN_POINT('',(755.238355800131,167.529471848787,0.));
#429=CARTESIAN_POINT('Origin',(755.738355800131,139.529471848787,0.));
#430=CARTESIAN_POINT('',(755.738355800131,139.029471848787,4000.));
#431=CARTESIAN_POINT('Origin',(755.738355800131,139.529471848787,4000.));
#432=CARTESIAN_POINT('',(755.738355800131,139.029471848787,0.));
#433=CARTESIAN_POINT('',(755.738355800131,139.029471848787,0.));
#434=CARTESIAN_POINT('Origin',(755.738355800131,139.529471848787,0.));
#435=CARTESIAN_POINT('Origin',(755.738355800131,139.029471848787,0.));
#436=CARTESIAN_POINT('',(781.738355800131,139.029471848787,4000.));
#437=CARTESIAN_POINT('',(755.738355800131,139.029471848787,4000.));
#438=CARTESIAN_POINT('',(781.738355800131,139.029471848787,0.));
#439=CARTESIAN_POINT('',(781.738355800131,139.029471848787,0.));
#440=CARTESIAN_POINT('',(755.738355800131,139.029471848787,0.));
#441=CARTESIAN_POINT('Origin',(781.738355800131,139.529471848787,0.));
#442=CARTESIAN_POINT('',(782.238355800131,139.529471848787,4000.));
#443=CARTESIAN_POINT('Origin',(781.738355800131,139.529471848787,4000.));
#444=CARTESIAN_POINT('',(782.238355800131,139.529471848787,0.));
#445=CARTESIAN_POINT('',(782.238355800131,139.529471848787,0.));
#446=CARTESIAN_POINT('Origin',(781.738355800131,139.529471848787,0.));
#447=CARTESIAN_POINT('Origin',(782.238355800131,139.529471848787,0.));
#448=CARTESIAN_POINT('',(782.238355800131,167.529471848787,4000.));
#449=CARTESIAN_POINT('',(782.238355800131,139.529471848787,4000.));
#450=CARTESIAN_POINT('',(782.238355800131,167.529471848787,0.));
#451=CARTESIAN_POINT('',(782.238355800131,167.529471848787,0.));
#452=CARTESIAN_POINT('',(782.238355800131,139.529471848787,0.));
#453=CARTESIAN_POINT('Origin',(782.238355800131,167.529471848787,0.));
#454=CARTESIAN_POINT('',(782.238355800131,167.529471848787,4000.));
#455=CARTESIAN_POINT('',(782.238355800131,167.529471848787,0.));
#456=CARTESIAN_POINT('Origin',(768.738355800131,148.515025355795,4000.));
#457=CARTESIAN_POINT('Origin',(768.738355800131,148.515025355795,0.));
#458=UNCERTAINTY_MEASURE_WITH_UNIT(LENGTH_MEASURE(0.01),#462,
'DISTANCE_ACCURACY_VALUE',
'Maximum model space distance between geometric entities at asserted c
onnectivities');
#459=UNCERTAINTY_MEASURE_WITH_UNIT(LENGTH_MEASURE(0.01),#462,
'DISTANCE_ACCURACY_VALUE',
'Maximum model space distance between geometric entities at asserted c
onnectivities');
#460=(
GEOMETRIC_REPRESENTATION_CONTEXT(3)
GLOBAL_UNCERTAINTY_ASSIGNED_CONTEXT((#458))
GLOBAL_UNIT_ASSIGNED_CONTEXT((#462,#464,#465))
REPRESENTATION_CONTEXT('','3D')
);
#461=(
GEOMETRIC_REPRESENTATION_CONTEXT(3)
GLOBAL_UNCERTAINTY_ASSIGNED_CONTEXT((#459))
GLOBAL_UNIT_ASSIGNED_CONTEXT((#462,#464,#465))
REPRESENTATION_CONTEXT('','3D')
);
#462=(
LENGTH_UNIT()
NAMED_UNIT(*)
SI_UNIT(.MILLI.,.METRE.)
);
#463=(
LENGTH_UNIT()
NAMED_UNIT(*)
SI_UNIT(.CENTI.,.METRE.)
);
#464=(
NAMED_UNIT(*)
PLANE_ANGLE_UNIT()
SI_UNIT($,.RADIAN.)
);
#465=(
NAMED_UNIT(*)
SI_UNIT($,.STERADIAN.)
SOLID_ANGLE_UNIT()
);
#466=SHAPE_DEFINITION_REPRESENTATION(#467,#468);
#467=PRODUCT_DEFINITION_SHAPE('',$,#470);
#468=SHAPE_REPRESENTATION('',(#286),#460);
#469=PRODUCT_DEFINITION_CONTEXT('part definition',#474,'design');
#470=PRODUCT_DEFINITION('1110-200','1110-300',#471,#469);
#471=PRODUCT_DEFINITION_FORMATION('',$,#476);
#472=PRODUCT_RELATED_PRODUCT_CATEGORY('1110-300','1110-300',(#476));
#473=APPLICATION_PROTOCOL_DEFINITION('international standard',
'automotive_design',2009,#474);
#474=APPLICATION_CONTEXT(
'Core Data for Automotive Mechanical Design Process');
#475=PRODUCT_CONTEXT('part definition',#474,'mechanical');
#476=PRODUCT('1110-200','1110-300',$,(#475));
#477=PRESENTATION_STYLE_ASSIGNMENT((#478));
#478=SURFACE_STYLE_USAGE(.BOTH.,#481);
#479=SURFACE_STYLE_RENDERING_WITH_PROPERTIES($,#485,(#480));
#480=SURFACE_STYLE_TRANSPARENT(0.);
#481=SURFACE_SIDE_STYLE('',(#482,#479));
#482=SURFACE_STYLE_FILL_AREA(#483);
#483=FILL_AREA_STYLE('',(#484));
#484=FILL_AREA_STYLE_COLOUR('',#485);
#485=COLOUR_RGB('',0.752941176470588,0.752941176470588,0.752941176470588);
ENDSEC;
END-ISO-10303-21;
