ISO-10303-21;
HEADER;
/* Generated by software containing ST-Developer
 * from STEP Tools, Inc. (www.steptools.com) 
 */

FILE_DESCRIPTION(
/* description */ (''),
/* implementation_level */ '2;1');

FILE_NAME(
/* name */ 'R:\\BE\\Transfert-temporaire\\Profils U.stp',
/* time_stamp */ '2019-08-13T15:33:19+02:00',
/* author */ ('Giuliano'),
/* organization */ (''),
/* preprocessor_version */ 'ST-DEVELOPER v17.2',
/* originating_system */ 'Autodesk Inventor 2019',
/* authorisation */ '');

FILE_SCHEMA (('AUTOMOTIVE_DESIGN { 1 0 10303 214 3 1 1 }'));
ENDSEC;

DATA;
#10=MECHANICAL_DESIGN_GEOMETRIC_PRESENTATION_REPRESENTATION('',(#13),#581);
#11=SHAPE_REPRESENTATION_RELATIONSHIP('SRR','None',#588,#12);
#12=ADVANCED_BREP_SHAPE_REPRESENTATION('',(#14),#580);
#13=STYLED_ITEM('',(#597),#14);
#14=MANIFOLD_SOLID_BREP('Solide1',#339);
#15=CIRCLE('',#361,2.3);
#16=CIRCLE('',#362,2.3);
#17=CIRCLE('',#365,0.800000000000001);
#18=CIRCLE('',#369,0.8);
#19=CIRCLE('',#374,2.3);
#20=CIRCLE('',#375,2.3);
#21=CIRCLE('',#378,0.800000000000001);
#22=CIRCLE('',#385,0.8);
#23=CYLINDRICAL_SURFACE('',#360,2.3);
#24=CYLINDRICAL_SURFACE('',#371,0.800000000000001);
#25=CYLINDRICAL_SURFACE('',#373,2.3);
#26=CYLINDRICAL_SURFACE('',#387,0.800000000000001);
#27=FACE_OUTER_BOUND('',#49,.T.);
#28=FACE_OUTER_BOUND('',#50,.T.);
#29=FACE_OUTER_BOUND('',#51,.T.);
#30=FACE_OUTER_BOUND('',#52,.T.);
#31=FACE_OUTER_BOUND('',#53,.T.);
#32=FACE_OUTER_BOUND('',#54,.T.);
#33=FACE_OUTER_BOUND('',#55,.T.);
#34=FACE_OUTER_BOUND('',#56,.T.);
#35=FACE_OUTER_BOUND('',#57,.T.);
#36=FACE_OUTER_BOUND('',#58,.T.);
#37=FACE_OUTER_BOUND('',#59,.T.);
#38=FACE_OUTER_BOUND('',#60,.T.);
#39=FACE_OUTER_BOUND('',#61,.T.);
#40=FACE_OUTER_BOUND('',#62,.T.);
#41=FACE_OUTER_BOUND('',#63,.T.);
#42=FACE_OUTER_BOUND('',#64,.T.);
#43=FACE_OUTER_BOUND('',#65,.T.);
#44=FACE_OUTER_BOUND('',#66,.T.);
#45=FACE_OUTER_BOUND('',#67,.T.);
#46=FACE_OUTER_BOUND('',#68,.T.);
#47=FACE_OUTER_BOUND('',#69,.T.);
#48=FACE_OUTER_BOUND('',#70,.T.);
#49=EDGE_LOOP('',(#211,#212,#213,#214));
#50=EDGE_LOOP('',(#215,#216,#217,#218));
#51=EDGE_LOOP('',(#219,#220,#221,#222));
#52=EDGE_LOOP('',(#223,#224,#225,#226));
#53=EDGE_LOOP('',(#227,#228,#229,#230));
#54=EDGE_LOOP('',(#231,#232,#233,#234));
#55=EDGE_LOOP('',(#235,#236,#237,#238));
#56=EDGE_LOOP('',(#239,#240,#241,#242));
#57=EDGE_LOOP('',(#243,#244,#245,#246));
#58=EDGE_LOOP('',(#247,#248,#249,#250));
#59=EDGE_LOOP('',(#251,#252,#253,#254));
#60=EDGE_LOOP('',(#255,#256,#257,#258));
#61=EDGE_LOOP('',(#259,#260,#261,#262));
#62=EDGE_LOOP('',(#263,#264,#265,#266));
#63=EDGE_LOOP('',(#267,#268,#269,#270));
#64=EDGE_LOOP('',(#271,#272,#273,#274));
#65=EDGE_LOOP('',(#275,#276,#277,#278));
#66=EDGE_LOOP('',(#279,#280,#281,#282));
#67=EDGE_LOOP('',(#283,#284,#285,#286));
#68=EDGE_LOOP('',(#287,#288,#289,#290));
#69=EDGE_LOOP('',(#291,#292,#293,#294));
#70=EDGE_LOOP('',(#295,#296,#297,#298));
#71=LINE('',#491,#107);
#72=LINE('',#493,#108);
#73=LINE('',#495,#109);
#74=LINE('',#496,#110);
#75=LINE('',#499,#111);
#76=LINE('',#503,#112);
#77=LINE('',#507,#113);
#78=LINE('',#509,#114);
#79=LINE('',#510,#115);
#80=LINE('',#512,#116);
#81=LINE('',#514,#117);
#82=LINE('',#518,#118);
#83=LINE('',#519,#119);
#84=LINE('',#521,#120);
#85=LINE('',#525,#121);
#86=LINE('',#528,#122);
#87=LINE('',#532,#123);
#88=LINE('',#534,#124);
#89=LINE('',#536,#125);
#90=LINE('',#537,#126);
#91=LINE('',#540,#127);
#92=LINE('',#544,#128);
#93=LINE('',#548,#129);
#94=LINE('',#550,#130);
#95=LINE('',#551,#131);
#96=LINE('',#553,#132);
#97=LINE('',#556,#133);
#98=LINE('',#559,#134);
#99=LINE('',#560,#135);
#100=LINE('',#561,#136);
#101=LINE('',#564,#137);
#102=LINE('',#565,#138);
#103=LINE('',#567,#139);
#104=LINE('',#569,#140);
#105=LINE('',#570,#141);
#106=LINE('',#572,#142);
#107=VECTOR('',#393,10.);
#108=VECTOR('',#394,10.);
#109=VECTOR('',#395,10.);
#110=VECTOR('',#396,10.);
#111=VECTOR('',#399,10.);
#112=VECTOR('',#402,10.);
#113=VECTOR('',#407,10.);
#114=VECTOR('',#408,10.);
#115=VECTOR('',#409,10.);
#116=VECTOR('',#412,10.);
#117=VECTOR('',#413,10.);
#118=VECTOR('',#418,10.);
#119=VECTOR('',#419,10.);
#120=VECTOR('',#422,10.);
#121=VECTOR('',#427,10.);
#122=VECTOR('',#432,10.);
#123=VECTOR('',#435,10.);
#124=VECTOR('',#436,10.);
#125=VECTOR('',#437,10.);
#126=VECTOR('',#438,10.);
#127=VECTOR('',#441,10.);
#128=VECTOR('',#444,10.);
#129=VECTOR('',#449,10.);
#130=VECTOR('',#450,10.);
#131=VECTOR('',#451,10.);
#132=VECTOR('',#454,10.);
#133=VECTOR('',#457,10.);
#134=VECTOR('',#460,10.);
#135=VECTOR('',#461,10.);
#136=VECTOR('',#462,10.);
#137=VECTOR('',#465,10.);
#138=VECTOR('',#466,10.);
#139=VECTOR('',#469,10.);
#140=VECTOR('',#472,10.);
#141=VECTOR('',#473,10.);
#142=VECTOR('',#476,10.);
#143=VERTEX_POINT('',#489);
#144=VERTEX_POINT('',#490);
#145=VERTEX_POINT('',#492);
#146=VERTEX_POINT('',#494);
#147=VERTEX_POINT('',#498);
#148=VERTEX_POINT('',#500);
#149=VERTEX_POINT('',#502);
#150=VERTEX_POINT('',#506);
#151=VERTEX_POINT('',#508);
#152=VERTEX_POINT('',#513);
#153=VERTEX_POINT('',#517);
#154=VERTEX_POINT('',#523);
#155=VERTEX_POINT('',#530);
#156=VERTEX_POINT('',#531);
#157=VERTEX_POINT('',#533);
#158=VERTEX_POINT('',#535);
#159=VERTEX_POINT('',#539);
#160=VERTEX_POINT('',#541);
#161=VERTEX_POINT('',#543);
#162=VERTEX_POINT('',#547);
#163=VERTEX_POINT('',#549);
#164=VERTEX_POINT('',#554);
#165=VERTEX_POINT('',#558);
#166=VERTEX_POINT('',#563);
#167=EDGE_CURVE('',#143,#144,#71,.T.);
#168=EDGE_CURVE('',#143,#145,#72,.T.);
#169=EDGE_CURVE('',#145,#146,#73,.T.);
#170=EDGE_CURVE('',#144,#146,#74,.T.);
#171=EDGE_CURVE('',#147,#143,#75,.T.);
#172=EDGE_CURVE('',#148,#143,#15,.T.);
#173=EDGE_CURVE('',#149,#148,#76,.T.);
#174=EDGE_CURVE('',#149,#147,#16,.T.);
#175=EDGE_CURVE('',#144,#150,#77,.T.);
#176=EDGE_CURVE('',#146,#151,#78,.T.);
#177=EDGE_CURVE('',#151,#150,#79,.T.);
#178=EDGE_CURVE('',#150,#147,#80,.T.);
#179=EDGE_CURVE('',#152,#149,#81,.T.);
#180=EDGE_CURVE('',#150,#152,#17,.T.);
#181=EDGE_CURVE('',#153,#151,#82,.T.);
#182=EDGE_CURVE('',#147,#153,#83,.T.);
#183=EDGE_CURVE('',#145,#153,#84,.T.);
#184=EDGE_CURVE('',#154,#144,#18,.T.);
#185=EDGE_CURVE('',#148,#154,#85,.T.);
#186=EDGE_CURVE('',#154,#152,#86,.T.);
#187=EDGE_CURVE('',#155,#156,#87,.T.);
#188=EDGE_CURVE('',#156,#157,#88,.T.);
#189=EDGE_CURVE('',#158,#157,#89,.T.);
#190=EDGE_CURVE('',#155,#158,#90,.T.);
#191=EDGE_CURVE('',#159,#155,#91,.T.);
#192=EDGE_CURVE('',#160,#159,#19,.T.);
#193=EDGE_CURVE('',#160,#161,#92,.T.);
#194=EDGE_CURVE('',#161,#155,#20,.T.);
#195=EDGE_CURVE('',#156,#162,#93,.T.);
#196=EDGE_CURVE('',#163,#162,#94,.T.);
#197=EDGE_CURVE('',#157,#163,#95,.T.);
#198=EDGE_CURVE('',#162,#159,#96,.T.);
#199=EDGE_CURVE('',#162,#164,#21,.T.);
#200=EDGE_CURVE('',#164,#160,#97,.T.);
#201=EDGE_CURVE('',#165,#164,#98,.T.);
#202=EDGE_CURVE('',#154,#165,#99,.T.);
#203=EDGE_CURVE('',#164,#152,#100,.T.);
#204=EDGE_CURVE('',#159,#166,#101,.T.);
#205=EDGE_CURVE('',#166,#163,#102,.T.);
#206=EDGE_CURVE('',#158,#166,#103,.T.);
#207=EDGE_CURVE('',#161,#165,#104,.T.);
#208=EDGE_CURVE('',#148,#161,#105,.T.);
#209=EDGE_CURVE('',#149,#160,#106,.T.);
#210=EDGE_CURVE('',#165,#156,#22,.T.);
#211=ORIENTED_EDGE('',*,*,#167,.F.);
#212=ORIENTED_EDGE('',*,*,#168,.T.);
#213=ORIENTED_EDGE('',*,*,#169,.T.);
#214=ORIENTED_EDGE('',*,*,#170,.F.);
#215=ORIENTED_EDGE('',*,*,#171,.T.);
#216=ORIENTED_EDGE('',*,*,#172,.F.);
#217=ORIENTED_EDGE('',*,*,#173,.F.);
#218=ORIENTED_EDGE('',*,*,#174,.T.);
#219=ORIENTED_EDGE('',*,*,#175,.F.);
#220=ORIENTED_EDGE('',*,*,#170,.T.);
#221=ORIENTED_EDGE('',*,*,#176,.T.);
#222=ORIENTED_EDGE('',*,*,#177,.T.);
#223=ORIENTED_EDGE('',*,*,#178,.T.);
#224=ORIENTED_EDGE('',*,*,#174,.F.);
#225=ORIENTED_EDGE('',*,*,#179,.F.);
#226=ORIENTED_EDGE('',*,*,#180,.F.);
#227=ORIENTED_EDGE('',*,*,#178,.F.);
#228=ORIENTED_EDGE('',*,*,#177,.F.);
#229=ORIENTED_EDGE('',*,*,#181,.F.);
#230=ORIENTED_EDGE('',*,*,#182,.F.);
#231=ORIENTED_EDGE('',*,*,#171,.F.);
#232=ORIENTED_EDGE('',*,*,#182,.T.);
#233=ORIENTED_EDGE('',*,*,#183,.F.);
#234=ORIENTED_EDGE('',*,*,#168,.F.);
#235=ORIENTED_EDGE('',*,*,#167,.T.);
#236=ORIENTED_EDGE('',*,*,#184,.F.);
#237=ORIENTED_EDGE('',*,*,#185,.F.);
#238=ORIENTED_EDGE('',*,*,#172,.T.);
#239=ORIENTED_EDGE('',*,*,#176,.F.);
#240=ORIENTED_EDGE('',*,*,#169,.F.);
#241=ORIENTED_EDGE('',*,*,#183,.T.);
#242=ORIENTED_EDGE('',*,*,#181,.T.);
#243=ORIENTED_EDGE('',*,*,#175,.T.);
#244=ORIENTED_EDGE('',*,*,#180,.T.);
#245=ORIENTED_EDGE('',*,*,#186,.F.);
#246=ORIENTED_EDGE('',*,*,#184,.T.);
#247=ORIENTED_EDGE('',*,*,#187,.T.);
#248=ORIENTED_EDGE('',*,*,#188,.T.);
#249=ORIENTED_EDGE('',*,*,#189,.F.);
#250=ORIENTED_EDGE('',*,*,#190,.F.);
#251=ORIENTED_EDGE('',*,*,#191,.F.);
#252=ORIENTED_EDGE('',*,*,#192,.F.);
#253=ORIENTED_EDGE('',*,*,#193,.T.);
#254=ORIENTED_EDGE('',*,*,#194,.T.);
#255=ORIENTED_EDGE('',*,*,#195,.T.);
#256=ORIENTED_EDGE('',*,*,#196,.F.);
#257=ORIENTED_EDGE('',*,*,#197,.F.);
#258=ORIENTED_EDGE('',*,*,#188,.F.);
#259=ORIENTED_EDGE('',*,*,#198,.F.);
#260=ORIENTED_EDGE('',*,*,#199,.T.);
#261=ORIENTED_EDGE('',*,*,#200,.T.);
#262=ORIENTED_EDGE('',*,*,#192,.T.);
#263=ORIENTED_EDGE('',*,*,#201,.F.);
#264=ORIENTED_EDGE('',*,*,#202,.F.);
#265=ORIENTED_EDGE('',*,*,#186,.T.);
#266=ORIENTED_EDGE('',*,*,#203,.F.);
#267=ORIENTED_EDGE('',*,*,#198,.T.);
#268=ORIENTED_EDGE('',*,*,#204,.T.);
#269=ORIENTED_EDGE('',*,*,#205,.T.);
#270=ORIENTED_EDGE('',*,*,#196,.T.);
#271=ORIENTED_EDGE('',*,*,#191,.T.);
#272=ORIENTED_EDGE('',*,*,#190,.T.);
#273=ORIENTED_EDGE('',*,*,#206,.T.);
#274=ORIENTED_EDGE('',*,*,#204,.F.);
#275=ORIENTED_EDGE('',*,*,#207,.F.);
#276=ORIENTED_EDGE('',*,*,#208,.F.);
#277=ORIENTED_EDGE('',*,*,#185,.T.);
#278=ORIENTED_EDGE('',*,*,#202,.T.);
#279=ORIENTED_EDGE('',*,*,#200,.F.);
#280=ORIENTED_EDGE('',*,*,#203,.T.);
#281=ORIENTED_EDGE('',*,*,#179,.T.);
#282=ORIENTED_EDGE('',*,*,#209,.T.);
#283=ORIENTED_EDGE('',*,*,#187,.F.);
#284=ORIENTED_EDGE('',*,*,#194,.F.);
#285=ORIENTED_EDGE('',*,*,#207,.T.);
#286=ORIENTED_EDGE('',*,*,#210,.T.);
#287=ORIENTED_EDGE('',*,*,#197,.T.);
#288=ORIENTED_EDGE('',*,*,#205,.F.);
#289=ORIENTED_EDGE('',*,*,#206,.F.);
#290=ORIENTED_EDGE('',*,*,#189,.T.);
#291=ORIENTED_EDGE('',*,*,#195,.F.);
#292=ORIENTED_EDGE('',*,*,#210,.F.);
#293=ORIENTED_EDGE('',*,*,#201,.T.);
#294=ORIENTED_EDGE('',*,*,#199,.F.);
#295=ORIENTED_EDGE('',*,*,#193,.F.);
#296=ORIENTED_EDGE('',*,*,#209,.F.);
#297=ORIENTED_EDGE('',*,*,#173,.T.);
#298=ORIENTED_EDGE('',*,*,#208,.T.);
#299=PLANE('',#359);
#300=PLANE('',#363);
#301=PLANE('',#364);
#302=PLANE('',#366);
#303=PLANE('',#367);
#304=PLANE('',#368);
#305=PLANE('',#370);
#306=PLANE('',#372);
#307=PLANE('',#376);
#308=PLANE('',#377);
#309=PLANE('',#379);
#310=PLANE('',#380);
#311=PLANE('',#381);
#312=PLANE('',#382);
#313=PLANE('',#383);
#314=PLANE('',#384);
#315=PLANE('',#386);
#316=PLANE('',#388);
#317=ADVANCED_FACE('',(#27),#299,.F.);
#318=ADVANCED_FACE('',(#28),#23,.T.);
#319=ADVANCED_FACE('',(#29),#300,.F.);
#320=ADVANCED_FACE('',(#30),#301,.F.);
#321=ADVANCED_FACE('',(#31),#302,.F.);
#322=ADVANCED_FACE('',(#32),#303,.T.);
#323=ADVANCED_FACE('',(#33),#304,.F.);
#324=ADVANCED_FACE('',(#34),#305,.F.);
#325=ADVANCED_FACE('',(#35),#24,.F.);
#326=ADVANCED_FACE('',(#36),#306,.T.);
#327=ADVANCED_FACE('',(#37),#25,.T.);
#328=ADVANCED_FACE('',(#38),#307,.T.);
#329=ADVANCED_FACE('',(#39),#308,.T.);
#330=ADVANCED_FACE('',(#40),#309,.T.);
#331=ADVANCED_FACE('',(#41),#310,.T.);
#332=ADVANCED_FACE('',(#42),#311,.F.);
#333=ADVANCED_FACE('',(#43),#312,.T.);
#334=ADVANCED_FACE('',(#44),#313,.T.);
#335=ADVANCED_FACE('',(#45),#314,.T.);
#336=ADVANCED_FACE('',(#46),#315,.T.);
#337=ADVANCED_FACE('',(#47),#26,.F.);
#338=ADVANCED_FACE('',(#48),#316,.F.);
#339=CLOSED_SHELL('',(#317,#318,#319,#320,#321,#322,#323,#324,#325,#326,
#327,#328,#329,#330,#331,#332,#333,#334,#335,#336,#337,#338));
#340=DERIVED_UNIT_ELEMENT(#342,1.);
#341=DERIVED_UNIT_ELEMENT(#583,3.);
#342=(
MASS_UNIT()
NAMED_UNIT(*)
SI_UNIT($,.GRAM.)
);
#343=DERIVED_UNIT((#340,#341));
#344=MEASURE_REPRESENTATION_ITEM('density measure',
POSITIVE_RATIO_MEASURE(7.85),#343);
#345=PROPERTY_DEFINITION_REPRESENTATION(#350,#347);
#346=PROPERTY_DEFINITION_REPRESENTATION(#351,#348);
#347=REPRESENTATION('material name',(#349),#580);
#348=REPRESENTATION('density',(#344),#580);
#349=DESCRIPTIVE_REPRESENTATION_ITEM('Acier galvanis\X\E9',
'Acier galvanis\X\E9');
#350=PROPERTY_DEFINITION('material property','material name',#590);
#351=PROPERTY_DEFINITION('material property','density of part',#590);
#352=DATE_TIME_ROLE('creation_date');
#353=APPLIED_DATE_AND_TIME_ASSIGNMENT(#354,#352,(#590));
#354=DATE_AND_TIME(#355,#356);
#355=CALENDAR_DATE(2009,6,11);
#356=LOCAL_TIME(10,42,31.,#357);
#357=COORDINATED_UNIVERSAL_TIME_OFFSET(0,0,.BEHIND.);
#358=AXIS2_PLACEMENT_3D('placement',#487,#389,#390);
#359=AXIS2_PLACEMENT_3D('',#488,#391,#392);
#360=AXIS2_PLACEMENT_3D('',#497,#397,#398);
#361=AXIS2_PLACEMENT_3D('',#501,#400,#401);
#362=AXIS2_PLACEMENT_3D('',#504,#403,#404);
#363=AXIS2_PLACEMENT_3D('',#505,#405,#406);
#364=AXIS2_PLACEMENT_3D('',#511,#410,#411);
#365=AXIS2_PLACEMENT_3D('',#515,#414,#415);
#366=AXIS2_PLACEMENT_3D('',#516,#416,#417);
#367=AXIS2_PLACEMENT_3D('',#520,#420,#421);
#368=AXIS2_PLACEMENT_3D('',#522,#423,#424);
#369=AXIS2_PLACEMENT_3D('',#524,#425,#426);
#370=AXIS2_PLACEMENT_3D('',#526,#428,#429);
#371=AXIS2_PLACEMENT_3D('',#527,#430,#431);
#372=AXIS2_PLACEMENT_3D('',#529,#433,#434);
#373=AXIS2_PLACEMENT_3D('',#538,#439,#440);
#374=AXIS2_PLACEMENT_3D('',#542,#442,#443);
#375=AXIS2_PLACEMENT_3D('',#545,#445,#446);
#376=AXIS2_PLACEMENT_3D('',#546,#447,#448);
#377=AXIS2_PLACEMENT_3D('',#552,#452,#453);
#378=AXIS2_PLACEMENT_3D('',#555,#455,#456);
#379=AXIS2_PLACEMENT_3D('',#557,#458,#459);
#380=AXIS2_PLACEMENT_3D('',#562,#463,#464);
#381=AXIS2_PLACEMENT_3D('',#566,#467,#468);
#382=AXIS2_PLACEMENT_3D('',#568,#470,#471);
#383=AXIS2_PLACEMENT_3D('',#571,#474,#475);
#384=AXIS2_PLACEMENT_3D('',#573,#477,#478);
#385=AXIS2_PLACEMENT_3D('',#574,#479,#480);
#386=AXIS2_PLACEMENT_3D('',#575,#481,#482);
#387=AXIS2_PLACEMENT_3D('',#576,#483,#484);
#388=AXIS2_PLACEMENT_3D('',#577,#485,#486);
#389=DIRECTION('axis',(0.,0.,1.));
#390=DIRECTION('refdir',(1.,0.,0.));
#391=DIRECTION('center_axis',(0.,1.,0.));
#392=DIRECTION('ref_axis',(1.,0.,-6.12323399573677E-17));
#393=DIRECTION('',(-1.,0.,6.12323399573677E-17));
#394=DIRECTION('',(6.12323399573677E-17,0.,1.));
#395=DIRECTION('',(-1.,0.,6.12323399573677E-17));
#396=DIRECTION('',(6.12323399573677E-17,0.,1.));
#397=DIRECTION('center_axis',(0.,-1.,0.));
#398=DIRECTION('ref_axis',(1.,0.,-1.20676415720126E-16));
#399=DIRECTION('',(0.,-1.,0.));
#400=DIRECTION('center_axis',(0.,-1.,0.));
#401=DIRECTION('ref_axis',(0.,0.,-1.));
#402=DIRECTION('',(0.,-1.,0.));
#403=DIRECTION('center_axis',(0.,-1.,0.));
#404=DIRECTION('ref_axis',(0.,0.,-1.));
#405=DIRECTION('center_axis',(1.,0.,-6.12323399573677E-17));
#406=DIRECTION('ref_axis',(-6.12323399573677E-17,0.,-1.));
#407=DIRECTION('',(0.,1.,0.));
#408=DIRECTION('',(0.,1.,0.));
#409=DIRECTION('',(-6.12323399573677E-17,0.,-1.));
#410=DIRECTION('center_axis',(0.,-1.,0.));
#411=DIRECTION('ref_axis',(0.,0.,1.));
#412=DIRECTION('',(1.,0.,-6.12323399573677E-17));
#413=DIRECTION('',(0.,0.,-1.));
#414=DIRECTION('center_axis',(0.,1.,0.));
#415=DIRECTION('ref_axis',(1.,0.,0.));
#416=DIRECTION('center_axis',(0.,-1.,0.));
#417=DIRECTION('ref_axis',(-1.,0.,6.12323399573677E-17));
#418=DIRECTION('',(-1.,0.,6.12323399573677E-17));
#419=DIRECTION('',(6.12323399573677E-17,0.,1.));
#420=DIRECTION('center_axis',(1.,0.,-6.12323399573677E-17));
#421=DIRECTION('ref_axis',(-6.12323399573677E-17,0.,-1.));
#422=DIRECTION('',(0.,1.,0.));
#423=DIRECTION('center_axis',(0.,1.,0.));
#424=DIRECTION('ref_axis',(0.,0.,-1.));
#425=DIRECTION('center_axis',(0.,-1.,0.));
#426=DIRECTION('ref_axis',(0.,0.,-1.));
#427=DIRECTION('',(0.,0.,1.));
#428=DIRECTION('center_axis',(-6.12323399573677E-17,0.,-1.));
#429=DIRECTION('ref_axis',(-1.,0.,6.12323399573677E-17));
#430=DIRECTION('center_axis',(0.,-1.,0.));
#431=DIRECTION('ref_axis',(1.,0.,0.));
#432=DIRECTION('',(0.,1.,0.));
#433=DIRECTION('center_axis',(0.,-1.,0.));
#434=DIRECTION('ref_axis',(-1.,0.,-6.12323399573677E-17));
#435=DIRECTION('',(1.,0.,6.12323399573677E-17));
#436=DIRECTION('',(-6.12323399573677E-17,0.,1.));
#437=DIRECTION('',(1.,0.,6.12323399573677E-17));
#438=DIRECTION('',(-6.12323399573677E-17,0.,1.));
#439=DIRECTION('center_axis',(0.,1.,0.));
#440=DIRECTION('ref_axis',(-1.,0.,-1.20676415720126E-16));
#441=DIRECTION('',(0.,-1.,0.));
#442=DIRECTION('center_axis',(0.,1.,0.));
#443=DIRECTION('ref_axis',(0.,0.,-1.));
#444=DIRECTION('',(0.,-1.,0.));
#445=DIRECTION('center_axis',(0.,1.,0.));
#446=DIRECTION('ref_axis',(0.,0.,-1.));
#447=DIRECTION('center_axis',(1.,0.,6.12323399573677E-17));
#448=DIRECTION('ref_axis',(6.12323399573677E-17,0.,-1.));
#449=DIRECTION('',(0.,1.,0.));
#450=DIRECTION('',(6.12323399573677E-17,0.,-1.));
#451=DIRECTION('',(0.,1.,0.));
#452=DIRECTION('center_axis',(0.,1.,0.));
#453=DIRECTION('ref_axis',(0.,0.,1.));
#454=DIRECTION('',(-1.,0.,-6.12323399573677E-17));
#455=DIRECTION('center_axis',(0.,-1.,0.));
#456=DIRECTION('ref_axis',(-1.,0.,0.));
#457=DIRECTION('',(0.,0.,-1.));
#458=DIRECTION('center_axis',(0.,0.,1.));
#459=DIRECTION('ref_axis',(1.,0.,0.));
#460=DIRECTION('',(0.,1.,0.));
#461=DIRECTION('',(-1.,0.,0.));
#462=DIRECTION('',(1.,0.,0.));
#463=DIRECTION('center_axis',(0.,1.,0.));
#464=DIRECTION('ref_axis',(1.,0.,6.12323399573677E-17));
#465=DIRECTION('',(-6.12323399573677E-17,0.,1.));
#466=DIRECTION('',(1.,0.,6.12323399573677E-17));
#467=DIRECTION('center_axis',(1.,0.,6.12323399573677E-17));
#468=DIRECTION('ref_axis',(6.12323399573677E-17,0.,-1.));
#469=DIRECTION('',(0.,1.,0.));
#470=DIRECTION('center_axis',(0.,-1.,0.));
#471=DIRECTION('ref_axis',(0.,0.,-1.));
#472=DIRECTION('',(0.,0.,1.));
#473=DIRECTION('',(-1.,0.,0.));
#474=DIRECTION('center_axis',(0.,1.,0.));
#475=DIRECTION('ref_axis',(0.,0.,1.));
#476=DIRECTION('',(-1.,0.,0.));
#477=DIRECTION('center_axis',(0.,-1.,0.));
#478=DIRECTION('ref_axis',(0.,0.,-1.));
#479=DIRECTION('center_axis',(0.,1.,0.));
#480=DIRECTION('ref_axis',(0.,0.,-1.));
#481=DIRECTION('center_axis',(-6.12323399573677E-17,0.,1.));
#482=DIRECTION('ref_axis',(1.,0.,6.12323399573677E-17));
#483=DIRECTION('center_axis',(0.,1.,0.));
#484=DIRECTION('ref_axis',(-1.,0.,0.));
#485=DIRECTION('center_axis',(0.,0.,1.));
#486=DIRECTION('ref_axis',(1.,0.,0.));
#487=CARTESIAN_POINT('',(0.,0.,0.));
#488=CARTESIAN_POINT('Origin',(15.,-1500.,2.3));
#489=CARTESIAN_POINT('',(15.,-1500.,2.3));
#490=CARTESIAN_POINT('',(13.5,-1500.,2.3));
#491=CARTESIAN_POINT('',(14.58,-1500.,2.3));
#492=CARTESIAN_POINT('',(15.,-1500.,30.));
#493=CARTESIAN_POINT('',(15.,-1500.,-12.6933626371205));
#494=CARTESIAN_POINT('',(13.5,-1500.,30.));
#495=CARTESIAN_POINT('',(15.,-1500.,30.));
#496=CARTESIAN_POINT('',(13.5,-1500.,2.3));
#497=CARTESIAN_POINT('Origin',(12.7,1500.,2.3));
#498=CARTESIAN_POINT('',(15.,1500.,2.3));
#499=CARTESIAN_POINT('',(15.,5.55111512312578E-16,2.3));
#500=CARTESIAN_POINT('',(12.7,-1500.,0.));
#501=CARTESIAN_POINT('Origin',(12.7,-1500.,2.3));
#502=CARTESIAN_POINT('',(12.7,1500.,0.));
#503=CARTESIAN_POINT('',(12.7,5.55111512312578E-16,0.));
#504=CARTESIAN_POINT('Origin',(12.7,1500.,2.3));
#505=CARTESIAN_POINT('Origin',(13.5,-1.11022302462516E-15,8.65331868143972));
#506=CARTESIAN_POINT('',(13.5,1500.,2.3));
#507=CARTESIAN_POINT('',(13.5,-5.55111512312578E-16,2.3));
#508=CARTESIAN_POINT('',(13.5,1500.,30.));
#509=CARTESIAN_POINT('',(13.5,-1500.,30.));
#510=CARTESIAN_POINT('',(13.5,1500.,-12.6933626371205));
#511=CARTESIAN_POINT('Origin',(13.5,1500.,2.3));
#512=CARTESIAN_POINT('',(14.58,1500.,2.3));
#513=CARTESIAN_POINT('',(12.7,1500.,1.5));
#514=CARTESIAN_POINT('',(12.7,1500.,0.42));
#515=CARTESIAN_POINT('Origin',(12.7,1500.,2.3));
#516=CARTESIAN_POINT('Origin',(15.,1500.,0.00663736287945138));
#517=CARTESIAN_POINT('',(15.,1500.,30.));
#518=CARTESIAN_POINT('',(15.,1500.,30.));
#519=CARTESIAN_POINT('',(15.,1500.,-12.6933626371205));
#520=CARTESIAN_POINT('Origin',(15.,1.11022302462516E-15,8.65331868143972));
#521=CARTESIAN_POINT('',(15.,-1500.,30.));
#522=CARTESIAN_POINT('Origin',(15.,-1500.,2.3));
#523=CARTESIAN_POINT('',(12.7,-1500.,1.5));
#524=CARTESIAN_POINT('Origin',(12.7,-1500.,2.3));
#525=CARTESIAN_POINT('',(12.7,-1500.,0.42));
#526=CARTESIAN_POINT('Origin',(15.,-1500.,30.));
#527=CARTESIAN_POINT('Origin',(12.7,-1500.,2.3));
#528=CARTESIAN_POINT('',(12.7,-5.55111512312578E-16,1.5));
#529=CARTESIAN_POINT('Origin',(-15.,-1500.,2.3));
#530=CARTESIAN_POINT('',(-15.,-1500.,2.3));
#531=CARTESIAN_POINT('',(-13.5,-1500.,2.3));
#532=CARTESIAN_POINT('',(-14.58,-1500.,2.3));
#533=CARTESIAN_POINT('',(-13.5,-1500.,30.));
#534=CARTESIAN_POINT('',(-13.5,-1500.,2.3));
#535=CARTESIAN_POINT('',(-15.,-1500.,30.));
#536=CARTESIAN_POINT('',(-15.,-1500.,30.));
#537=CARTESIAN_POINT('',(-15.,-1500.,-12.6933626371205));
#538=CARTESIAN_POINT('Origin',(-12.7,1500.,2.3));
#539=CARTESIAN_POINT('',(-15.,1500.,2.3));
#540=CARTESIAN_POINT('',(-15.,5.55111512312578E-16,2.3));
#541=CARTESIAN_POINT('',(-12.7,1500.,0.));
#542=CARTESIAN_POINT('Origin',(-12.7,1500.,2.3));
#543=CARTESIAN_POINT('',(-12.7,-1500.,0.));
#544=CARTESIAN_POINT('',(-12.7,5.55111512312578E-16,0.));
#545=CARTESIAN_POINT('Origin',(-12.7,-1500.,2.3));
#546=CARTESIAN_POINT('Origin',(-13.5,-1.11022302462516E-15,8.65331868143972));
#547=CARTESIAN_POINT('',(-13.5,1500.,2.3));
#548=CARTESIAN_POINT('',(-13.5,-5.55111512312578E-16,2.3));
#549=CARTESIAN_POINT('',(-13.5,1500.,30.));
#550=CARTESIAN_POINT('',(-13.5,1500.,-12.6933626371205));
#551=CARTESIAN_POINT('',(-13.5,-1500.,30.));
#552=CARTESIAN_POINT('Origin',(-13.5,1500.,2.3));
#553=CARTESIAN_POINT('',(-14.58,1500.,2.3));
#554=CARTESIAN_POINT('',(-12.7,1500.,1.5));
#555=CARTESIAN_POINT('Origin',(-12.7,1500.,2.3));
#556=CARTESIAN_POINT('',(-12.7,1500.,0.42));
#557=CARTESIAN_POINT('Origin',(-21.3466813185603,-1.11022302462516E-15,
1.5));
#558=CARTESIAN_POINT('',(-12.7,-1500.,1.5));
#559=CARTESIAN_POINT('',(-12.7,-5.55111512312578E-16,1.5));
#560=CARTESIAN_POINT('',(-14.9933626371205,-1500.,1.5));
#561=CARTESIAN_POINT('',(0.,1500.,1.5));
#562=CARTESIAN_POINT('Origin',(-15.,1500.,0.00663736287945138));
#563=CARTESIAN_POINT('',(-15.,1500.,30.));
#564=CARTESIAN_POINT('',(-15.,1500.,-12.6933626371205));
#565=CARTESIAN_POINT('',(-15.,1500.,30.));
#566=CARTESIAN_POINT('Origin',(-15.,1.11022302462516E-15,8.65331868143972));
#567=CARTESIAN_POINT('',(-15.,-1500.,30.));
#568=CARTESIAN_POINT('Origin',(-14.9933626371205,-1500.,0.));
#569=CARTESIAN_POINT('',(-12.7,-1500.,0.42));
#570=CARTESIAN_POINT('',(0.,-1500.,0.));
#571=CARTESIAN_POINT('Origin',(-12.7,1500.,0.));
#572=CARTESIAN_POINT('',(0.,1500.,0.));
#573=CARTESIAN_POINT('Origin',(-15.,-1500.,2.3));
#574=CARTESIAN_POINT('Origin',(-12.7,-1500.,2.3));
#575=CARTESIAN_POINT('Origin',(-15.,-1500.,30.));
#576=CARTESIAN_POINT('Origin',(-12.7,-1500.,2.3));
#577=CARTESIAN_POINT('Origin',(-21.3466813185603,1.11022302462516E-15,0.));
#578=UNCERTAINTY_MEASURE_WITH_UNIT(LENGTH_MEASURE(0.01),#582,
'DISTANCE_ACCURACY_VALUE',
'Maximum model space distance between geometric entities at asserted c
onnectivities');
#579=UNCERTAINTY_MEASURE_WITH_UNIT(LENGTH_MEASURE(0.01),#582,
'DISTANCE_ACCURACY_VALUE',
'Maximum model space distance between geometric entities at asserted c
onnectivities');
#580=(
GEOMETRIC_REPRESENTATION_CONTEXT(3)
GLOBAL_UNCERTAINTY_ASSIGNED_CONTEXT((#578))
GLOBAL_UNIT_ASSIGNED_CONTEXT((#582,#584,#585))
REPRESENTATION_CONTEXT('','3D')
);
#581=(
GEOMETRIC_REPRESENTATION_CONTEXT(3)
GLOBAL_UNCERTAINTY_ASSIGNED_CONTEXT((#579))
GLOBAL_UNIT_ASSIGNED_CONTEXT((#582,#584,#585))
REPRESENTATION_CONTEXT('','3D')
);
#582=(
LENGTH_UNIT()
NAMED_UNIT(*)
SI_UNIT(.MILLI.,.METRE.)
);
#583=(
LENGTH_UNIT()
NAMED_UNIT(*)
SI_UNIT(.CENTI.,.METRE.)
);
#584=(
NAMED_UNIT(*)
PLANE_ANGLE_UNIT()
SI_UNIT($,.RADIAN.)
);
#585=(
NAMED_UNIT(*)
SI_UNIT($,.STERADIAN.)
SOLID_ANGLE_UNIT()
);
#586=SHAPE_DEFINITION_REPRESENTATION(#587,#588);
#587=PRODUCT_DEFINITION_SHAPE('',$,#590);
#588=SHAPE_REPRESENTATION('',(#358),#580);
#589=PRODUCT_DEFINITION_CONTEXT('part definition',#594,'design');
#590=PRODUCT_DEFINITION('1110','Profils U',#591,#589);
#591=PRODUCT_DEFINITION_FORMATION('',$,#596);
#592=PRODUCT_RELATED_PRODUCT_CATEGORY('Profils U','Profils U',(#596));
#593=APPLICATION_PROTOCOL_DEFINITION('international standard',
'automotive_design',2009,#594);
#594=APPLICATION_CONTEXT(
'Core Data for Automotive Mechanical Design Process');
#595=PRODUCT_CONTEXT('part definition',#594,'mechanical');
#596=PRODUCT('1110','Profils U',$,(#595));
#597=PRESENTATION_STYLE_ASSIGNMENT((#598));
#598=SURFACE_STYLE_USAGE(.BOTH.,#601);
#599=SURFACE_STYLE_RENDERING_WITH_PROPERTIES($,#605,(#600));
#600=SURFACE_STYLE_TRANSPARENT(0.);
#601=SURFACE_SIDE_STYLE('',(#602,#599));
#602=SURFACE_STYLE_FILL_AREA(#603);
#603=FILL_AREA_STYLE('',(#604));
#604=FILL_AREA_STYLE_COLOUR('',#605);
#605=COLOUR_RGB('',0.87843137254902,0.874509803921569,0.858823529411765);
ENDSEC;
END-ISO-10303-21;
