ISO-10303-21;
HEADER;
/* Generated by software containing ST-Developer
 * from STEP Tools, Inc. (www.steptools.com) 
 */

FILE_DESCRIPTION(
/* description */ (''),
/* implementation_level */ '2;1');

FILE_NAME(
/* name */ 'R:\\BE\\Inventor\\PRODUITS\\STP\\1110M.stp',
/* time_stamp */ '2019-03-25T10:59:14+01:00',
/* author */ ('DBARI'),
/* organization */ (''),
/* preprocessor_version */ 'ST-DEVELOPER v17.2',
/* originating_system */ 'Autodesk Inventor 2019',
/* authorisation */ '');

FILE_SCHEMA (('AUTOMOTIVE_DESIGN { 1 0 10303 214 3 1 1 }'));
ENDSEC;

DATA;
#10=MECHANICAL_DESIGN_GEOMETRIC_PRESENTATION_REPRESENTATION('',(#13),#559);
#11=SHAPE_REPRESENTATION_RELATIONSHIP('SRR','None',#566,#12);
#12=ADVANCED_BREP_SHAPE_REPRESENTATION('',(#14),#558);
#13=STYLED_ITEM('',(#575),#14);
#14=MANIFOLD_SOLID_BREP('Solide1',#323);
#15=FACE_BOUND('',#49,.T.);
#16=FACE_BOUND('',#50,.T.);
#17=FACE_BOUND('',#53,.T.);
#18=FACE_BOUND('',#54,.T.);
#19=PLANE('',#354);
#20=PLANE('',#358);
#21=PLANE('',#359);
#22=PLANE('',#366);
#23=PLANE('',#367);
#24=PLANE('',#368);
#25=PLANE('',#369);
#26=PLANE('',#370);
#27=PLANE('',#371);
#28=PLANE('',#372);
#29=FACE_OUTER_BOUND('',#45,.T.);
#30=FACE_OUTER_BOUND('',#46,.T.);
#31=FACE_OUTER_BOUND('',#47,.T.);
#32=FACE_OUTER_BOUND('',#48,.T.);
#33=FACE_OUTER_BOUND('',#51,.T.);
#34=FACE_OUTER_BOUND('',#52,.T.);
#35=FACE_OUTER_BOUND('',#55,.T.);
#36=FACE_OUTER_BOUND('',#56,.T.);
#37=FACE_OUTER_BOUND('',#57,.T.);
#38=FACE_OUTER_BOUND('',#58,.T.);
#39=FACE_OUTER_BOUND('',#59,.T.);
#40=FACE_OUTER_BOUND('',#60,.T.);
#41=FACE_OUTER_BOUND('',#61,.T.);
#42=FACE_OUTER_BOUND('',#62,.T.);
#43=FACE_OUTER_BOUND('',#63,.T.);
#44=FACE_OUTER_BOUND('',#64,.T.);
#45=EDGE_LOOP('',(#213,#214,#215,#216,#217));
#46=EDGE_LOOP('',(#218,#219,#220,#221,#222));
#47=EDGE_LOOP('',(#223,#224,#225,#226));
#48=EDGE_LOOP('',(#227,#228,#229,#230));
#49=EDGE_LOOP('',(#231));
#50=EDGE_LOOP('',(#232));
#51=EDGE_LOOP('',(#233,#234,#235,#236));
#52=EDGE_LOOP('',(#237,#238,#239,#240));
#53=EDGE_LOOP('',(#241,#242));
#54=EDGE_LOOP('',(#243,#244));
#55=EDGE_LOOP('',(#245,#246,#247,#248,#249,#250,#251,#252,#253,#254,#255,
#256));
#56=EDGE_LOOP('',(#257,#258,#259,#260));
#57=EDGE_LOOP('',(#261,#262,#263,#264));
#58=EDGE_LOOP('',(#265,#266,#267,#268));
#59=EDGE_LOOP('',(#269,#270,#271,#272));
#60=EDGE_LOOP('',(#273,#274,#275,#276));
#61=EDGE_LOOP('',(#277,#278,#279,#280));
#62=EDGE_LOOP('',(#281,#282,#283,#284));
#63=EDGE_LOOP('',(#285,#286,#287,#288));
#64=EDGE_LOOP('',(#289,#290,#291,#292,#293,#294,#295,#296,#297,#298,#299,
#300));
#65=LINE('',#472,#95);
#66=LINE('',#480,#96);
#67=LINE('',#487,#97);
#68=LINE('',#490,#98);
#69=LINE('',#493,#99);
#70=LINE('',#495,#100);
#71=LINE('',#496,#101);
#72=LINE('',#502,#102);
#73=LINE('',#505,#103);
#74=LINE('',#508,#104);
#75=LINE('',#510,#105);
#76=LINE('',#511,#106);
#77=LINE('',#514,#107);
#78=LINE('',#516,#108);
#79=LINE('',#517,#109);
#80=LINE('',#521,#110);
#81=LINE('',#523,#111);
#82=LINE('',#525,#112);
#83=LINE('',#529,#113);
#84=LINE('',#534,#114);
#85=LINE('',#537,#115);
#86=LINE('',#538,#116);
#87=LINE('',#541,#117);
#88=LINE('',#542,#118);
#89=LINE('',#544,#119);
#90=LINE('',#547,#120);
#91=LINE('',#548,#121);
#92=LINE('',#551,#122);
#93=LINE('',#552,#123);
#94=LINE('',#554,#124);
#95=VECTOR('',#381,3.25);
#96=VECTOR('',#390,3.25);
#97=VECTOR('',#397,10.);
#98=VECTOR('',#400,10.);
#99=VECTOR('',#403,10.);
#100=VECTOR('',#404,10.);
#101=VECTOR('',#405,10.);
#102=VECTOR('',#410,10.);
#103=VECTOR('',#413,10.);
#104=VECTOR('',#416,10.);
#105=VECTOR('',#417,10.);
#106=VECTOR('',#418,10.);
#107=VECTOR('',#421,10.);
#108=VECTOR('',#422,10.);
#109=VECTOR('',#423,10.);
#110=VECTOR('',#426,10.);
#111=VECTOR('',#427,10.);
#112=VECTOR('',#428,10.);
#113=VECTOR('',#433,10.);
#114=VECTOR('',#440,10.);
#115=VECTOR('',#443,10.);
#116=VECTOR('',#444,10.);
#117=VECTOR('',#447,10.);
#118=VECTOR('',#448,10.);
#119=VECTOR('',#451,10.);
#120=VECTOR('',#454,10.);
#121=VECTOR('',#455,10.);
#122=VECTOR('',#458,10.);
#123=VECTOR('',#459,10.);
#124=VECTOR('',#462,10.);
#125=CIRCLE('',#344,3.25);
#126=CIRCLE('',#345,3.25);
#127=CIRCLE('',#346,3.25);
#128=CIRCLE('',#348,3.25);
#129=CIRCLE('',#349,3.25);
#130=CIRCLE('',#350,3.25);
#131=CIRCLE('',#352,3.);
#132=CIRCLE('',#353,3.);
#133=CIRCLE('',#356,5.);
#134=CIRCLE('',#357,5.);
#135=CIRCLE('',#360,3.);
#136=CIRCLE('',#361,5.);
#137=CIRCLE('',#363,5.);
#138=CIRCLE('',#365,3.);
#139=VERTEX_POINT('',#467);
#140=VERTEX_POINT('',#468);
#141=VERTEX_POINT('',#471);
#142=VERTEX_POINT('',#475);
#143=VERTEX_POINT('',#476);
#144=VERTEX_POINT('',#479);
#145=VERTEX_POINT('',#483);
#146=VERTEX_POINT('',#484);
#147=VERTEX_POINT('',#486);
#148=VERTEX_POINT('',#488);
#149=VERTEX_POINT('',#492);
#150=VERTEX_POINT('',#494);
#151=VERTEX_POINT('',#498);
#152=VERTEX_POINT('',#499);
#153=VERTEX_POINT('',#501);
#154=VERTEX_POINT('',#503);
#155=VERTEX_POINT('',#507);
#156=VERTEX_POINT('',#509);
#157=VERTEX_POINT('',#513);
#158=VERTEX_POINT('',#515);
#159=VERTEX_POINT('',#518);
#160=VERTEX_POINT('',#520);
#161=VERTEX_POINT('',#522);
#162=VERTEX_POINT('',#524);
#163=VERTEX_POINT('',#528);
#164=VERTEX_POINT('',#532);
#165=VERTEX_POINT('',#536);
#166=VERTEX_POINT('',#540);
#167=VERTEX_POINT('',#546);
#168=VERTEX_POINT('',#550);
#169=EDGE_CURVE('',#139,#140,#125,.T.);
#170=EDGE_CURVE('',#140,#139,#126,.T.);
#171=EDGE_CURVE('',#140,#141,#65,.T.);
#172=EDGE_CURVE('',#141,#141,#127,.T.);
#173=EDGE_CURVE('',#142,#143,#128,.T.);
#174=EDGE_CURVE('',#143,#142,#129,.T.);
#175=EDGE_CURVE('',#143,#144,#66,.T.);
#176=EDGE_CURVE('',#144,#144,#130,.T.);
#177=EDGE_CURVE('',#145,#146,#131,.T.);
#178=EDGE_CURVE('',#146,#147,#67,.T.);
#179=EDGE_CURVE('',#147,#148,#132,.T.);
#180=EDGE_CURVE('',#148,#145,#68,.T.);
#181=EDGE_CURVE('',#146,#149,#69,.T.);
#182=EDGE_CURVE('',#150,#149,#70,.T.);
#183=EDGE_CURVE('',#150,#147,#71,.T.);
#184=EDGE_CURVE('',#151,#152,#133,.T.);
#185=EDGE_CURVE('',#152,#153,#72,.T.);
#186=EDGE_CURVE('',#153,#154,#134,.T.);
#187=EDGE_CURVE('',#154,#151,#73,.T.);
#188=EDGE_CURVE('',#152,#155,#74,.T.);
#189=EDGE_CURVE('',#156,#155,#75,.T.);
#190=EDGE_CURVE('',#156,#153,#76,.T.);
#191=EDGE_CURVE('',#157,#151,#77,.T.);
#192=EDGE_CURVE('',#158,#157,#78,.T.);
#193=EDGE_CURVE('',#148,#158,#79,.T.);
#194=EDGE_CURVE('',#159,#150,#135,.T.);
#195=EDGE_CURVE('',#160,#159,#80,.T.);
#196=EDGE_CURVE('',#161,#160,#81,.T.);
#197=EDGE_CURVE('',#162,#161,#82,.T.);
#198=EDGE_CURVE('',#155,#162,#136,.T.);
#199=EDGE_CURVE('',#162,#163,#83,.T.);
#200=EDGE_CURVE('',#163,#156,#137,.T.);
#201=EDGE_CURVE('',#149,#164,#138,.T.);
#202=EDGE_CURVE('',#164,#159,#84,.T.);
#203=EDGE_CURVE('',#164,#165,#85,.T.);
#204=EDGE_CURVE('',#165,#160,#86,.T.);
#205=EDGE_CURVE('',#166,#161,#87,.T.);
#206=EDGE_CURVE('',#166,#163,#88,.T.);
#207=EDGE_CURVE('',#165,#166,#89,.T.);
#208=EDGE_CURVE('',#167,#158,#90,.T.);
#209=EDGE_CURVE('',#167,#145,#91,.T.);
#210=EDGE_CURVE('',#168,#157,#92,.T.);
#211=EDGE_CURVE('',#168,#167,#93,.T.);
#212=EDGE_CURVE('',#154,#168,#94,.T.);
#213=ORIENTED_EDGE('',*,*,#169,.F.);
#214=ORIENTED_EDGE('',*,*,#170,.F.);
#215=ORIENTED_EDGE('',*,*,#171,.T.);
#216=ORIENTED_EDGE('',*,*,#172,.F.);
#217=ORIENTED_EDGE('',*,*,#171,.F.);
#218=ORIENTED_EDGE('',*,*,#173,.F.);
#219=ORIENTED_EDGE('',*,*,#174,.F.);
#220=ORIENTED_EDGE('',*,*,#175,.T.);
#221=ORIENTED_EDGE('',*,*,#176,.F.);
#222=ORIENTED_EDGE('',*,*,#175,.F.);
#223=ORIENTED_EDGE('',*,*,#177,.T.);
#224=ORIENTED_EDGE('',*,*,#178,.T.);
#225=ORIENTED_EDGE('',*,*,#179,.T.);
#226=ORIENTED_EDGE('',*,*,#180,.T.);
#227=ORIENTED_EDGE('',*,*,#178,.F.);
#228=ORIENTED_EDGE('',*,*,#181,.T.);
#229=ORIENTED_EDGE('',*,*,#182,.F.);
#230=ORIENTED_EDGE('',*,*,#183,.T.);
#231=ORIENTED_EDGE('',*,*,#172,.T.);
#232=ORIENTED_EDGE('',*,*,#176,.T.);
#233=ORIENTED_EDGE('',*,*,#184,.T.);
#234=ORIENTED_EDGE('',*,*,#185,.T.);
#235=ORIENTED_EDGE('',*,*,#186,.T.);
#236=ORIENTED_EDGE('',*,*,#187,.T.);
#237=ORIENTED_EDGE('',*,*,#185,.F.);
#238=ORIENTED_EDGE('',*,*,#188,.T.);
#239=ORIENTED_EDGE('',*,*,#189,.F.);
#240=ORIENTED_EDGE('',*,*,#190,.T.);
#241=ORIENTED_EDGE('',*,*,#169,.T.);
#242=ORIENTED_EDGE('',*,*,#170,.T.);
#243=ORIENTED_EDGE('',*,*,#173,.T.);
#244=ORIENTED_EDGE('',*,*,#174,.T.);
#245=ORIENTED_EDGE('',*,*,#184,.F.);
#246=ORIENTED_EDGE('',*,*,#191,.F.);
#247=ORIENTED_EDGE('',*,*,#192,.F.);
#248=ORIENTED_EDGE('',*,*,#193,.F.);
#249=ORIENTED_EDGE('',*,*,#179,.F.);
#250=ORIENTED_EDGE('',*,*,#183,.F.);
#251=ORIENTED_EDGE('',*,*,#194,.F.);
#252=ORIENTED_EDGE('',*,*,#195,.F.);
#253=ORIENTED_EDGE('',*,*,#196,.F.);
#254=ORIENTED_EDGE('',*,*,#197,.F.);
#255=ORIENTED_EDGE('',*,*,#198,.F.);
#256=ORIENTED_EDGE('',*,*,#188,.F.);
#257=ORIENTED_EDGE('',*,*,#198,.T.);
#258=ORIENTED_EDGE('',*,*,#199,.T.);
#259=ORIENTED_EDGE('',*,*,#200,.T.);
#260=ORIENTED_EDGE('',*,*,#189,.T.);
#261=ORIENTED_EDGE('',*,*,#201,.T.);
#262=ORIENTED_EDGE('',*,*,#202,.T.);
#263=ORIENTED_EDGE('',*,*,#194,.T.);
#264=ORIENTED_EDGE('',*,*,#182,.T.);
#265=ORIENTED_EDGE('',*,*,#202,.F.);
#266=ORIENTED_EDGE('',*,*,#203,.T.);
#267=ORIENTED_EDGE('',*,*,#204,.T.);
#268=ORIENTED_EDGE('',*,*,#195,.T.);
#269=ORIENTED_EDGE('',*,*,#199,.F.);
#270=ORIENTED_EDGE('',*,*,#197,.T.);
#271=ORIENTED_EDGE('',*,*,#205,.F.);
#272=ORIENTED_EDGE('',*,*,#206,.T.);
#273=ORIENTED_EDGE('',*,*,#196,.T.);
#274=ORIENTED_EDGE('',*,*,#204,.F.);
#275=ORIENTED_EDGE('',*,*,#207,.T.);
#276=ORIENTED_EDGE('',*,*,#205,.T.);
#277=ORIENTED_EDGE('',*,*,#180,.F.);
#278=ORIENTED_EDGE('',*,*,#193,.T.);
#279=ORIENTED_EDGE('',*,*,#208,.F.);
#280=ORIENTED_EDGE('',*,*,#209,.T.);
#281=ORIENTED_EDGE('',*,*,#192,.T.);
#282=ORIENTED_EDGE('',*,*,#210,.F.);
#283=ORIENTED_EDGE('',*,*,#211,.T.);
#284=ORIENTED_EDGE('',*,*,#208,.T.);
#285=ORIENTED_EDGE('',*,*,#187,.F.);
#286=ORIENTED_EDGE('',*,*,#212,.T.);
#287=ORIENTED_EDGE('',*,*,#210,.T.);
#288=ORIENTED_EDGE('',*,*,#191,.T.);
#289=ORIENTED_EDGE('',*,*,#186,.F.);
#290=ORIENTED_EDGE('',*,*,#190,.F.);
#291=ORIENTED_EDGE('',*,*,#200,.F.);
#292=ORIENTED_EDGE('',*,*,#206,.F.);
#293=ORIENTED_EDGE('',*,*,#207,.F.);
#294=ORIENTED_EDGE('',*,*,#203,.F.);
#295=ORIENTED_EDGE('',*,*,#201,.F.);
#296=ORIENTED_EDGE('',*,*,#181,.F.);
#297=ORIENTED_EDGE('',*,*,#177,.F.);
#298=ORIENTED_EDGE('',*,*,#209,.F.);
#299=ORIENTED_EDGE('',*,*,#211,.F.);
#300=ORIENTED_EDGE('',*,*,#212,.F.);
#301=CYLINDRICAL_SURFACE('',#343,3.25);
#302=CYLINDRICAL_SURFACE('',#347,3.25);
#303=CYLINDRICAL_SURFACE('',#351,3.);
#304=CYLINDRICAL_SURFACE('',#355,5.);
#305=CYLINDRICAL_SURFACE('',#362,5.);
#306=CYLINDRICAL_SURFACE('',#364,3.);
#307=ADVANCED_FACE('',(#29),#301,.F.);
#308=ADVANCED_FACE('',(#30),#302,.F.);
#309=ADVANCED_FACE('',(#31),#303,.F.);
#310=ADVANCED_FACE('',(#32,#15,#16),#19,.T.);
#311=ADVANCED_FACE('',(#33),#304,.T.);
#312=ADVANCED_FACE('',(#34,#17,#18),#20,.T.);
#313=ADVANCED_FACE('',(#35),#21,.T.);
#314=ADVANCED_FACE('',(#36),#305,.T.);
#315=ADVANCED_FACE('',(#37),#306,.F.);
#316=ADVANCED_FACE('',(#38),#22,.T.);
#317=ADVANCED_FACE('',(#39),#23,.T.);
#318=ADVANCED_FACE('',(#40),#24,.T.);
#319=ADVANCED_FACE('',(#41),#25,.T.);
#320=ADVANCED_FACE('',(#42),#26,.T.);
#321=ADVANCED_FACE('',(#43),#27,.T.);
#322=ADVANCED_FACE('',(#44),#28,.F.);
#323=CLOSED_SHELL('',(#307,#308,#309,#310,#311,#312,#313,#314,#315,#316,
#317,#318,#319,#320,#321,#322));
#324=DERIVED_UNIT_ELEMENT(#326,1.);
#325=DERIVED_UNIT_ELEMENT(#561,3.);
#326=(
MASS_UNIT()
NAMED_UNIT(*)
SI_UNIT($,.GRAM.)
);
#327=DERIVED_UNIT((#324,#325));
#328=MEASURE_REPRESENTATION_ITEM('density measure',
POSITIVE_RATIO_MEASURE(1.),#327);
#329=PROPERTY_DEFINITION_REPRESENTATION(#334,#331);
#330=PROPERTY_DEFINITION_REPRESENTATION(#335,#332);
#331=REPRESENTATION('material name',(#333),#558);
#332=REPRESENTATION('density',(#328),#558);
#333=DESCRIPTIVE_REPRESENTATION_ITEM('G\X\E9n\X\E9rique','G\X\E9n\X\E9
rique');
#334=PROPERTY_DEFINITION('material property','material name',#568);
#335=PROPERTY_DEFINITION('material property','density of part',#568);
#336=DATE_TIME_ROLE('creation_date');
#337=APPLIED_DATE_AND_TIME_ASSIGNMENT(#338,#336,(#568));
#338=DATE_AND_TIME(#339,#340);
#339=CALENDAR_DATE(2004,26,2);
#340=LOCAL_TIME(8,23,27.,#341);
#341=COORDINATED_UNIVERSAL_TIME_OFFSET(0,0,.BEHIND.);
#342=AXIS2_PLACEMENT_3D('placement',#465,#373,#374);
#343=AXIS2_PLACEMENT_3D('',#466,#375,#376);
#344=AXIS2_PLACEMENT_3D('',#469,#377,#378);
#345=AXIS2_PLACEMENT_3D('',#470,#379,#380);
#346=AXIS2_PLACEMENT_3D('',#473,#382,#383);
#347=AXIS2_PLACEMENT_3D('',#474,#384,#385);
#348=AXIS2_PLACEMENT_3D('',#477,#386,#387);
#349=AXIS2_PLACEMENT_3D('',#478,#388,#389);
#350=AXIS2_PLACEMENT_3D('',#481,#391,#392);
#351=AXIS2_PLACEMENT_3D('',#482,#393,#394);
#352=AXIS2_PLACEMENT_3D('',#485,#395,#396);
#353=AXIS2_PLACEMENT_3D('',#489,#398,#399);
#354=AXIS2_PLACEMENT_3D('',#491,#401,#402);
#355=AXIS2_PLACEMENT_3D('',#497,#406,#407);
#356=AXIS2_PLACEMENT_3D('',#500,#408,#409);
#357=AXIS2_PLACEMENT_3D('',#504,#411,#412);
#358=AXIS2_PLACEMENT_3D('',#506,#414,#415);
#359=AXIS2_PLACEMENT_3D('',#512,#419,#420);
#360=AXIS2_PLACEMENT_3D('',#519,#424,#425);
#361=AXIS2_PLACEMENT_3D('',#526,#429,#430);
#362=AXIS2_PLACEMENT_3D('',#527,#431,#432);
#363=AXIS2_PLACEMENT_3D('',#530,#434,#435);
#364=AXIS2_PLACEMENT_3D('',#531,#436,#437);
#365=AXIS2_PLACEMENT_3D('',#533,#438,#439);
#366=AXIS2_PLACEMENT_3D('',#535,#441,#442);
#367=AXIS2_PLACEMENT_3D('',#539,#445,#446);
#368=AXIS2_PLACEMENT_3D('',#543,#449,#450);
#369=AXIS2_PLACEMENT_3D('',#545,#452,#453);
#370=AXIS2_PLACEMENT_3D('',#549,#456,#457);
#371=AXIS2_PLACEMENT_3D('',#553,#460,#461);
#372=AXIS2_PLACEMENT_3D('',#555,#463,#464);
#373=DIRECTION('axis',(0.,0.,1.));
#374=DIRECTION('refdir',(1.,0.,0.));
#375=DIRECTION('center_axis',(4.08140681151366E-19,-1.,0.));
#376=DIRECTION('ref_axis',(1.,4.08140681151366E-19,0.));
#377=DIRECTION('center_axis',(-4.08140681151366E-19,1.,0.));
#378=DIRECTION('ref_axis',(1.,4.08140681151366E-19,0.));
#379=DIRECTION('center_axis',(-4.08140681151366E-19,1.,0.));
#380=DIRECTION('ref_axis',(1.,4.08140681151366E-19,0.));
#381=DIRECTION('',(-4.08140681151366E-19,1.,0.));
#382=DIRECTION('center_axis',(1.25347760844776E-16,-1.,0.));
#383=DIRECTION('ref_axis',(1.,4.08140681151366E-19,0.));
#384=DIRECTION('center_axis',(4.08140681151366E-19,-1.,0.));
#385=DIRECTION('ref_axis',(1.,4.08140681151366E-19,0.));
#386=DIRECTION('center_axis',(-4.08140681151366E-19,1.,0.));
#387=DIRECTION('ref_axis',(1.,4.08140681151366E-19,0.));
#388=DIRECTION('center_axis',(-4.08140681151366E-19,1.,0.));
#389=DIRECTION('ref_axis',(1.,4.08140681151366E-19,0.));
#390=DIRECTION('',(-4.08140681151366E-19,1.,0.));
#391=DIRECTION('center_axis',(1.25347760844776E-16,-1.,0.));
#392=DIRECTION('ref_axis',(1.,4.08140681151366E-19,0.));
#393=DIRECTION('center_axis',(0.,0.,1.));
#394=DIRECTION('ref_axis',(0.707106781186548,-0.707106781186547,0.));
#395=DIRECTION('center_axis',(0.,0.,-1.));
#396=DIRECTION('ref_axis',(0.707106781186548,-0.707106781186547,0.));
#397=DIRECTION('',(0.,0.,1.));
#398=DIRECTION('center_axis',(0.,0.,1.));
#399=DIRECTION('ref_axis',(0.707106781186548,-0.707106781186547,0.));
#400=DIRECTION('',(0.,0.,-1.));
#401=DIRECTION('center_axis',(-1.25347760844776E-16,1.,0.));
#402=DIRECTION('ref_axis',(0.,0.,1.));
#403=DIRECTION('',(-1.,-1.25347760844776E-16,0.));
#404=DIRECTION('',(0.,0.,-1.));
#405=DIRECTION('',(1.,1.25347760844776E-16,0.));
#406=DIRECTION('center_axis',(0.,0.,1.));
#407=DIRECTION('ref_axis',(0.707106781186548,-0.707106781186547,0.));
#408=DIRECTION('center_axis',(0.,0.,-1.));
#409=DIRECTION('ref_axis',(0.707106781186548,-0.707106781186547,0.));
#410=DIRECTION('',(0.,0.,-1.));
#411=DIRECTION('center_axis',(0.,0.,1.));
#412=DIRECTION('ref_axis',(0.707106781186548,-0.707106781186547,0.));
#413=DIRECTION('',(0.,0.,1.));
#414=DIRECTION('center_axis',(4.08140681151366E-19,-1.,0.));
#415=DIRECTION('ref_axis',(0.,0.,-1.));
#416=DIRECTION('',(-1.,-4.08140681151366E-19,0.));
#417=DIRECTION('',(0.,0.,1.));
#418=DIRECTION('',(1.,4.08140681151366E-19,0.));
#419=DIRECTION('center_axis',(0.,0.,1.));
#420=DIRECTION('ref_axis',(1.,0.,0.));
#421=DIRECTION('',(1.34572487833352E-16,-1.,0.));
#422=DIRECTION('',(1.,-1.48029736616687E-15,0.));
#423=DIRECTION('',(-1.48029736616688E-16,1.,0.));
#424=DIRECTION('center_axis',(0.,0.,1.));
#425=DIRECTION('ref_axis',(-0.707106781186547,-0.707106781186548,0.));
#426=DIRECTION('',(1.85037170770859E-16,-1.,0.));
#427=DIRECTION('',(1.,0.,0.));
#428=DIRECTION('',(-6.72862439166762E-17,1.,0.));
#429=DIRECTION('center_axis',(0.,0.,-1.));
#430=DIRECTION('ref_axis',(-0.707106781186548,-0.707106781186547,0.));
#431=DIRECTION('center_axis',(0.,0.,1.));
#432=DIRECTION('ref_axis',(-0.707106781186548,-0.707106781186547,0.));
#433=DIRECTION('',(0.,0.,-1.));
#434=DIRECTION('center_axis',(0.,0.,1.));
#435=DIRECTION('ref_axis',(-0.707106781186548,-0.707106781186547,0.));
#436=DIRECTION('center_axis',(0.,0.,1.));
#437=DIRECTION('ref_axis',(-0.707106781186547,-0.707106781186548,0.));
#438=DIRECTION('center_axis',(0.,0.,-1.));
#439=DIRECTION('ref_axis',(-0.707106781186547,-0.707106781186548,0.));
#440=DIRECTION('',(0.,0.,1.));
#441=DIRECTION('center_axis',(1.,1.85037170770859E-16,0.));
#442=DIRECTION('ref_axis',(0.,0.,-1.));
#443=DIRECTION('',(-1.85037170770859E-16,1.,0.));
#444=DIRECTION('',(0.,0.,1.));
#445=DIRECTION('center_axis',(-1.,-6.72862439166762E-17,0.));
#446=DIRECTION('ref_axis',(0.,0.,1.));
#447=DIRECTION('',(0.,0.,1.));
#448=DIRECTION('',(6.72862439166762E-17,-1.,0.));
#449=DIRECTION('center_axis',(0.,1.,0.));
#450=DIRECTION('ref_axis',(0.,0.,1.));
#451=DIRECTION('',(-1.,0.,0.));
#452=DIRECTION('center_axis',(-1.,-1.48029736616688E-16,0.));
#453=DIRECTION('ref_axis',(0.,0.,1.));
#454=DIRECTION('',(0.,0.,1.));
#455=DIRECTION('',(1.48029736616688E-16,-1.,0.));
#456=DIRECTION('center_axis',(1.48029736616687E-15,1.,0.));
#457=DIRECTION('ref_axis',(0.,0.,1.));
#458=DIRECTION('',(0.,0.,1.));
#459=DIRECTION('',(-1.,1.48029736616687E-15,0.));
#460=DIRECTION('center_axis',(1.,1.34572487833352E-16,0.));
#461=DIRECTION('ref_axis',(0.,0.,-1.));
#462=DIRECTION('',(-1.34572487833352E-16,1.,0.));
#463=DIRECTION('center_axis',(0.,0.,1.));
#464=DIRECTION('ref_axis',(1.,0.,0.));
#465=CARTESIAN_POINT('',(0.,0.,0.));
#466=CARTESIAN_POINT('Origin',(18.5,101.004950373732,64.));
#467=CARTESIAN_POINT('',(21.75,8.87705981504222E-18,64.));
#468=CARTESIAN_POINT('',(15.25,0.,64.));
#469=CARTESIAN_POINT('Origin',(18.5,0.,64.));
#470=CARTESIAN_POINT('Origin',(18.5,0.,64.));
#471=CARTESIAN_POINT('',(15.25,3.00000000000001,64.));
#472=CARTESIAN_POINT('',(15.25,101.004950373732,64.));
#473=CARTESIAN_POINT('Origin',(18.5,3.00000000000001,64.));
#474=CARTESIAN_POINT('Origin',(18.5,101.004950373732,24.));
#475=CARTESIAN_POINT('',(21.75,8.87705981504222E-18,24.));
#476=CARTESIAN_POINT('',(15.25,0.,24.));
#477=CARTESIAN_POINT('Origin',(18.5,0.,24.));
#478=CARTESIAN_POINT('Origin',(18.5,0.,24.));
#479=CARTESIAN_POINT('',(15.25,3.00000000000001,24.));
#480=CARTESIAN_POINT('',(15.25,101.004950373732,24.));
#481=CARTESIAN_POINT('Origin',(18.5,3.00000000000001,24.));
#482=CARTESIAN_POINT('Origin',(31.,6.,0.));
#483=CARTESIAN_POINT('',(34.,6.00000000000001,0.));
#484=CARTESIAN_POINT('',(31.,3.,0.));
#485=CARTESIAN_POINT('Origin',(31.,6.,0.));
#486=CARTESIAN_POINT('',(31.,3.,88.));
#487=CARTESIAN_POINT('',(31.,3.,0.));
#488=CARTESIAN_POINT('',(34.,6.00000000000001,88.));
#489=CARTESIAN_POINT('Origin',(31.,6.,88.));
#490=CARTESIAN_POINT('',(34.,6.,0.));
#491=CARTESIAN_POINT('Origin',(3.,3.,0.));
#492=CARTESIAN_POINT('',(6.,3.,0.));
#493=CARTESIAN_POINT('',(34.,3.,0.));
#494=CARTESIAN_POINT('',(6.,3.,88.));
#495=CARTESIAN_POINT('',(6.,3.,0.));
#496=CARTESIAN_POINT('',(34.,3.,88.));
#497=CARTESIAN_POINT('Origin',(32.,5.,0.));
#498=CARTESIAN_POINT('',(37.,5.,88.));
#499=CARTESIAN_POINT('',(32.,1.30605017968437E-17,88.));
#500=CARTESIAN_POINT('Origin',(32.,5.,88.));
#501=CARTESIAN_POINT('',(32.,1.30605017968437E-17,0.));
#502=CARTESIAN_POINT('',(32.,0.,0.));
#503=CARTESIAN_POINT('',(37.,5.,0.));
#504=CARTESIAN_POINT('Origin',(32.,5.,0.));
#505=CARTESIAN_POINT('',(37.,5.,0.));
#506=CARTESIAN_POINT('Origin',(37.,1.51012052026006E-17,0.));
#507=CARTESIAN_POINT('',(5.,2.04070340575683E-18,88.));
#508=CARTESIAN_POINT('',(0.,0.,88.));
#509=CARTESIAN_POINT('',(5.,2.04070340575683E-18,0.));
#510=CARTESIAN_POINT('',(5.,0.,0.));
#511=CARTESIAN_POINT('',(0.,0.,0.));
#512=CARTESIAN_POINT('Origin',(18.5,12.3,88.));
#513=CARTESIAN_POINT('',(37.,33.,88.));
#514=CARTESIAN_POINT('',(37.,0.,88.));
#515=CARTESIAN_POINT('',(34.,33.,88.));
#516=CARTESIAN_POINT('',(37.,33.,88.));
#517=CARTESIAN_POINT('',(34.,33.,88.));
#518=CARTESIAN_POINT('',(3.,6.,88.));
#519=CARTESIAN_POINT('Origin',(6.,6.,88.));
#520=CARTESIAN_POINT('',(2.99999999999999,33.,88.));
#521=CARTESIAN_POINT('',(3.,3.,88.));
#522=CARTESIAN_POINT('',(-2.22044604925031E-15,33.,88.));
#523=CARTESIAN_POINT('',(2.99999999999999,33.,88.));
#524=CARTESIAN_POINT('',(-3.3643121958338E-16,5.,88.));
#525=CARTESIAN_POINT('',(-2.22044604925031E-15,33.,88.));
#526=CARTESIAN_POINT('Origin',(5.,5.,88.));
#527=CARTESIAN_POINT('Origin',(5.,5.,0.));
#528=CARTESIAN_POINT('',(-3.3643121958338E-16,5.,0.));
#529=CARTESIAN_POINT('',(0.,5.,0.));
#530=CARTESIAN_POINT('Origin',(5.,5.,0.));
#531=CARTESIAN_POINT('Origin',(6.,6.,0.));
#532=CARTESIAN_POINT('',(3.,6.,0.));
#533=CARTESIAN_POINT('Origin',(6.,6.,0.));
#534=CARTESIAN_POINT('',(3.,6.,0.));
#535=CARTESIAN_POINT('Origin',(2.99999999999999,33.,0.));
#536=CARTESIAN_POINT('',(2.99999999999999,33.,0.));
#537=CARTESIAN_POINT('',(3.,3.,0.));
#538=CARTESIAN_POINT('',(2.99999999999999,33.,0.));
#539=CARTESIAN_POINT('Origin',(0.,0.,0.));
#540=CARTESIAN_POINT('',(-2.22044604925031E-15,33.,0.));
#541=CARTESIAN_POINT('',(-2.22044604925031E-15,33.,0.));
#542=CARTESIAN_POINT('',(-2.22044604925031E-15,33.,0.));
#543=CARTESIAN_POINT('Origin',(-2.22044604925031E-15,33.,0.));
#544=CARTESIAN_POINT('',(2.99999999999999,33.,0.));
#545=CARTESIAN_POINT('Origin',(34.,3.,0.));
#546=CARTESIAN_POINT('',(34.,33.,0.));
#547=CARTESIAN_POINT('',(34.,33.,0.));
#548=CARTESIAN_POINT('',(34.,33.,0.));
#549=CARTESIAN_POINT('Origin',(34.,33.,0.));
#550=CARTESIAN_POINT('',(37.,33.,0.));
#551=CARTESIAN_POINT('',(37.,33.,0.));
#552=CARTESIAN_POINT('',(37.,33.,0.));
#553=CARTESIAN_POINT('Origin',(37.,33.,0.));
#554=CARTESIAN_POINT('',(37.,0.,0.));
#555=CARTESIAN_POINT('Origin',(18.5,12.3,0.));
#556=UNCERTAINTY_MEASURE_WITH_UNIT(LENGTH_MEASURE(0.01),#560,
'DISTANCE_ACCURACY_VALUE',
'Maximum model space distance between geometric entities at asserted c
onnectivities');
#557=UNCERTAINTY_MEASURE_WITH_UNIT(LENGTH_MEASURE(0.01),#560,
'DISTANCE_ACCURACY_VALUE',
'Maximum model space distance between geometric entities at asserted c
onnectivities');
#558=(
GEOMETRIC_REPRESENTATION_CONTEXT(3)
GLOBAL_UNCERTAINTY_ASSIGNED_CONTEXT((#556))
GLOBAL_UNIT_ASSIGNED_CONTEXT((#560,#562,#563))
REPRESENTATION_CONTEXT('','3D')
);
#559=(
GEOMETRIC_REPRESENTATION_CONTEXT(3)
GLOBAL_UNCERTAINTY_ASSIGNED_CONTEXT((#557))
GLOBAL_UNIT_ASSIGNED_CONTEXT((#560,#562,#563))
REPRESENTATION_CONTEXT('','3D')
);
#560=(
LENGTH_UNIT()
NAMED_UNIT(*)
SI_UNIT(.MILLI.,.METRE.)
);
#561=(
LENGTH_UNIT()
NAMED_UNIT(*)
SI_UNIT(.CENTI.,.METRE.)
);
#562=(
NAMED_UNIT(*)
PLANE_ANGLE_UNIT()
SI_UNIT($,.RADIAN.)
);
#563=(
NAMED_UNIT(*)
SI_UNIT($,.STERADIAN.)
SOLID_ANGLE_UNIT()
);
#564=SHAPE_DEFINITION_REPRESENTATION(#565,#566);
#565=PRODUCT_DEFINITION_SHAPE('',$,#568);
#566=SHAPE_REPRESENTATION('',(#342),#558);
#567=PRODUCT_DEFINITION_CONTEXT('part definition',#572,'design');
#568=PRODUCT_DEFINITION('1110M','1110M',#569,#567);
#569=PRODUCT_DEFINITION_FORMATION('',$,#574);
#570=PRODUCT_RELATED_PRODUCT_CATEGORY('1110M','1110M',(#574));
#571=APPLICATION_PROTOCOL_DEFINITION('international standard',
'automotive_design',2009,#572);
#572=APPLICATION_CONTEXT(
'Core Data for Automotive Mechanical Design Process');
#573=PRODUCT_CONTEXT('part definition',#572,'mechanical');
#574=PRODUCT('1110M','1110M',$,(#573));
#575=PRESENTATION_STYLE_ASSIGNMENT((#576));
#576=SURFACE_STYLE_USAGE(.BOTH.,#579);
#577=SURFACE_STYLE_RENDERING_WITH_PROPERTIES($,#583,(#578));
#578=SURFACE_STYLE_TRANSPARENT(1.);
#579=SURFACE_SIDE_STYLE('',(#580,#577));
#580=SURFACE_STYLE_FILL_AREA(#581);
#581=FILL_AREA_STYLE('',(#582));
#582=FILL_AREA_STYLE_COLOUR('',#583);
#583=COLOUR_RGB('',0.752941176470588,0.752941176470588,0.752941176470588);
ENDSEC;
END-ISO-10303-21;
