ISO-10303-21;
HEADER;
/* Generated by software containing ST-Developer
 * from STEP Tools, Inc. (www.steptools.com) 
 */

FILE_DESCRIPTION(
/* description */ (''),
/* implementation_level */ '2;1');

FILE_NAME(
/* name */ 'R:\\BE\\Inventor\\PRODUITS\\1109M.stp',
/* time_stamp */ '2016-02-18T14:08:06+01:00',
/* author */ ('DIDIERR'),
/* organization */ (''),
/* preprocessor_version */ 'ST-DEVELOPER v15.6',
/* originating_system */ 'Autodesk Inventor 2015',
/* authorisation */ '');

FILE_SCHEMA (('AUTOMOTIVE_DESIGN { 1 0 10303 214 3 1 1 }'));
ENDSEC;

DATA;
#10=MECHANICAL_DESIGN_GEOMETRIC_PRESENTATION_REPRESENTATION('',(#13),#511);
#11=SHAPE_REPRESENTATION_RELATIONSHIP('SRR','None',#520,#12);
#12=ADVANCED_BREP_SHAPE_REPRESENTATION($,(#14),#510);
#13=STYLED_ITEM('',(#529),#14);
#14=MANIFOLD_SOLID_BREP('Solide1',#307);
#15=LINE('',#437,#43);
#16=LINE('',#439,#44);
#17=LINE('',#441,#45);
#18=LINE('',#442,#46);
#19=LINE('',#445,#47);
#20=LINE('',#447,#48);
#21=LINE('',#448,#49);
#22=LINE('',#453,#50);
#23=LINE('',#457,#51);
#24=LINE('',#459,#52);
#25=LINE('',#460,#53);
#26=LINE('',#465,#54);
#27=LINE('',#469,#55);
#28=LINE('',#471,#56);
#29=LINE('',#472,#57);
#30=LINE('',#475,#58);
#31=LINE('',#477,#59);
#32=LINE('',#478,#60);
#33=LINE('',#481,#61);
#34=LINE('',#483,#62);
#35=LINE('',#484,#63);
#36=LINE('',#489,#64);
#37=LINE('',#493,#65);
#38=LINE('',#495,#66);
#39=LINE('',#496,#67);
#40=LINE('',#501,#68);
#41=LINE('',#504,#69);
#42=LINE('',#505,#70);
#43=VECTOR('',#353,2.3);
#44=VECTOR('',#354,76.);
#45=VECTOR('',#355,2.3);
#46=VECTOR('',#356,76.);
#47=VECTOR('',#359,25.);
#48=VECTOR('',#360,76.);
#49=VECTOR('',#361,25.);
#50=VECTOR('',#366,76.);
#51=VECTOR('',#371,17.8);
#52=VECTOR('',#372,76.);
#53=VECTOR('',#373,17.8);
#54=VECTOR('',#378,76.);
#55=VECTOR('',#383,25.);
#56=VECTOR('',#384,76.);
#57=VECTOR('',#385,25.);
#58=VECTOR('',#388,2.3);
#59=VECTOR('',#389,76.);
#60=VECTOR('',#390,2.3);
#61=VECTOR('',#393,25.5);
#62=VECTOR('',#394,76.);
#63=VECTOR('',#395,25.5);
#64=VECTOR('',#400,76.);
#65=VECTOR('',#405,18.8);
#66=VECTOR('',#406,76.);
#67=VECTOR('',#407,18.8);
#68=VECTOR('',#412,76.);
#69=VECTOR('',#417,25.5);
#70=VECTOR('',#418,25.5);
#71=PLANE('',#315);
#72=PLANE('',#316);
#73=PLANE('',#320);
#74=PLANE('',#324);
#75=PLANE('',#325);
#76=PLANE('',#326);
#77=PLANE('',#330);
#78=PLANE('',#334);
#79=PLANE('',#335);
#80=PLANE('',#336);
#81=FACE_BOUND('',#104,.T.);
#82=FACE_BOUND('',#106,.T.);
#83=FACE_BOUND('',#111,.T.);
#84=FACE_BOUND('',#112,.T.);
#85=FACE_BOUND('',#119,.T.);
#86=FACE_BOUND('',#120,.T.);
#87=FACE_OUTER_BOUND('',#103,.T.);
#88=FACE_OUTER_BOUND('',#105,.T.);
#89=FACE_OUTER_BOUND('',#107,.T.);
#90=FACE_OUTER_BOUND('',#108,.T.);
#91=FACE_OUTER_BOUND('',#109,.T.);
#92=FACE_OUTER_BOUND('',#110,.T.);
#93=FACE_OUTER_BOUND('',#113,.T.);
#94=FACE_OUTER_BOUND('',#114,.T.);
#95=FACE_OUTER_BOUND('',#115,.T.);
#96=FACE_OUTER_BOUND('',#116,.T.);
#97=FACE_OUTER_BOUND('',#117,.T.);
#98=FACE_OUTER_BOUND('',#118,.T.);
#99=FACE_OUTER_BOUND('',#121,.T.);
#100=FACE_OUTER_BOUND('',#122,.T.);
#101=FACE_OUTER_BOUND('',#123,.T.);
#102=FACE_OUTER_BOUND('',#124,.T.);
#103=EDGE_LOOP('',(#205));
#104=EDGE_LOOP('',(#206));
#105=EDGE_LOOP('',(#207));
#106=EDGE_LOOP('',(#208));
#107=EDGE_LOOP('',(#209,#210,#211,#212));
#108=EDGE_LOOP('',(#213,#214,#215,#216));
#109=EDGE_LOOP('',(#217,#218,#219,#220));
#110=EDGE_LOOP('',(#221,#222,#223,#224));
#111=EDGE_LOOP('',(#225));
#112=EDGE_LOOP('',(#226));
#113=EDGE_LOOP('',(#227,#228,#229,#230));
#114=EDGE_LOOP('',(#231,#232,#233,#234));
#115=EDGE_LOOP('',(#235,#236,#237,#238));
#116=EDGE_LOOP('',(#239,#240,#241,#242));
#117=EDGE_LOOP('',(#243,#244,#245,#246));
#118=EDGE_LOOP('',(#247,#248,#249,#250));
#119=EDGE_LOOP('',(#251));
#120=EDGE_LOOP('',(#252));
#121=EDGE_LOOP('',(#253,#254,#255,#256));
#122=EDGE_LOOP('',(#257,#258,#259,#260));
#123=EDGE_LOOP('',(#261,#262,#263,#264,#265,#266,#267,#268,#269,#270,#271,
#272));
#124=EDGE_LOOP('',(#273,#274,#275,#276,#277,#278,#279,#280,#281,#282,#283,
#284));
#125=CIRCLE('',#310,3.25);
#126=CIRCLE('',#311,3.25);
#127=CIRCLE('',#313,3.25);
#128=CIRCLE('',#314,3.25);
#129=CIRCLE('',#318,0.2);
#130=CIRCLE('',#319,0.2);
#131=CIRCLE('',#322,0.2);
#132=CIRCLE('',#323,0.2);
#133=CIRCLE('',#328,2.);
#134=CIRCLE('',#329,2.);
#135=CIRCLE('',#332,2.);
#136=CIRCLE('',#333,2.);
#137=VERTEX_POINT('',#425);
#138=VERTEX_POINT('',#427);
#139=VERTEX_POINT('',#430);
#140=VERTEX_POINT('',#432);
#141=VERTEX_POINT('',#435);
#142=VERTEX_POINT('',#436);
#143=VERTEX_POINT('',#438);
#144=VERTEX_POINT('',#440);
#145=VERTEX_POINT('',#444);
#146=VERTEX_POINT('',#446);
#147=VERTEX_POINT('',#450);
#148=VERTEX_POINT('',#452);
#149=VERTEX_POINT('',#456);
#150=VERTEX_POINT('',#458);
#151=VERTEX_POINT('',#462);
#152=VERTEX_POINT('',#464);
#153=VERTEX_POINT('',#468);
#154=VERTEX_POINT('',#470);
#155=VERTEX_POINT('',#474);
#156=VERTEX_POINT('',#476);
#157=VERTEX_POINT('',#480);
#158=VERTEX_POINT('',#482);
#159=VERTEX_POINT('',#486);
#160=VERTEX_POINT('',#488);
#161=VERTEX_POINT('',#492);
#162=VERTEX_POINT('',#494);
#163=VERTEX_POINT('',#498);
#164=VERTEX_POINT('',#500);
#165=EDGE_CURVE('',#137,#137,#125,.T.);
#166=EDGE_CURVE('',#138,#138,#126,.T.);
#167=EDGE_CURVE('',#139,#139,#127,.T.);
#168=EDGE_CURVE('',#140,#140,#128,.T.);
#169=EDGE_CURVE('',#141,#142,#15,.T.);
#170=EDGE_CURVE('',#143,#142,#16,.T.);
#171=EDGE_CURVE('',#143,#144,#17,.T.);
#172=EDGE_CURVE('',#144,#141,#18,.T.);
#173=EDGE_CURVE('',#142,#145,#19,.T.);
#174=EDGE_CURVE('',#146,#145,#20,.T.);
#175=EDGE_CURVE('',#146,#143,#21,.T.);
#176=EDGE_CURVE('',#145,#147,#129,.T.);
#177=EDGE_CURVE('',#148,#147,#22,.T.);
#178=EDGE_CURVE('',#148,#146,#130,.T.);
#179=EDGE_CURVE('',#147,#149,#23,.T.);
#180=EDGE_CURVE('',#150,#149,#24,.T.);
#181=EDGE_CURVE('',#150,#148,#25,.T.);
#182=EDGE_CURVE('',#149,#151,#131,.T.);
#183=EDGE_CURVE('',#152,#151,#26,.T.);
#184=EDGE_CURVE('',#152,#150,#132,.T.);
#185=EDGE_CURVE('',#151,#153,#27,.T.);
#186=EDGE_CURVE('',#154,#153,#28,.T.);
#187=EDGE_CURVE('',#154,#152,#29,.T.);
#188=EDGE_CURVE('',#153,#155,#30,.T.);
#189=EDGE_CURVE('',#156,#155,#31,.T.);
#190=EDGE_CURVE('',#156,#154,#32,.T.);
#191=EDGE_CURVE('',#155,#157,#33,.T.);
#192=EDGE_CURVE('',#158,#157,#34,.T.);
#193=EDGE_CURVE('',#158,#156,#35,.T.);
#194=EDGE_CURVE('',#157,#159,#133,.T.);
#195=EDGE_CURVE('',#160,#159,#36,.T.);
#196=EDGE_CURVE('',#160,#158,#134,.T.);
#197=EDGE_CURVE('',#159,#161,#37,.T.);
#198=EDGE_CURVE('',#162,#161,#38,.T.);
#199=EDGE_CURVE('',#162,#160,#39,.T.);
#200=EDGE_CURVE('',#161,#163,#135,.T.);
#201=EDGE_CURVE('',#164,#163,#40,.T.);
#202=EDGE_CURVE('',#164,#162,#136,.T.);
#203=EDGE_CURVE('',#163,#141,#41,.T.);
#204=EDGE_CURVE('',#144,#164,#42,.T.);
#205=ORIENTED_EDGE('',*,*,#165,.F.);
#206=ORIENTED_EDGE('',*,*,#166,.F.);
#207=ORIENTED_EDGE('',*,*,#167,.F.);
#208=ORIENTED_EDGE('',*,*,#168,.F.);
#209=ORIENTED_EDGE('',*,*,#169,.T.);
#210=ORIENTED_EDGE('',*,*,#170,.F.);
#211=ORIENTED_EDGE('',*,*,#171,.T.);
#212=ORIENTED_EDGE('',*,*,#172,.T.);
#213=ORIENTED_EDGE('',*,*,#173,.T.);
#214=ORIENTED_EDGE('',*,*,#174,.F.);
#215=ORIENTED_EDGE('',*,*,#175,.T.);
#216=ORIENTED_EDGE('',*,*,#170,.T.);
#217=ORIENTED_EDGE('',*,*,#176,.T.);
#218=ORIENTED_EDGE('',*,*,#177,.F.);
#219=ORIENTED_EDGE('',*,*,#178,.T.);
#220=ORIENTED_EDGE('',*,*,#174,.T.);
#221=ORIENTED_EDGE('',*,*,#179,.T.);
#222=ORIENTED_EDGE('',*,*,#180,.F.);
#223=ORIENTED_EDGE('',*,*,#181,.T.);
#224=ORIENTED_EDGE('',*,*,#177,.T.);
#225=ORIENTED_EDGE('',*,*,#165,.T.);
#226=ORIENTED_EDGE('',*,*,#167,.T.);
#227=ORIENTED_EDGE('',*,*,#182,.T.);
#228=ORIENTED_EDGE('',*,*,#183,.F.);
#229=ORIENTED_EDGE('',*,*,#184,.T.);
#230=ORIENTED_EDGE('',*,*,#180,.T.);
#231=ORIENTED_EDGE('',*,*,#185,.T.);
#232=ORIENTED_EDGE('',*,*,#186,.F.);
#233=ORIENTED_EDGE('',*,*,#187,.T.);
#234=ORIENTED_EDGE('',*,*,#183,.T.);
#235=ORIENTED_EDGE('',*,*,#188,.T.);
#236=ORIENTED_EDGE('',*,*,#189,.F.);
#237=ORIENTED_EDGE('',*,*,#190,.T.);
#238=ORIENTED_EDGE('',*,*,#186,.T.);
#239=ORIENTED_EDGE('',*,*,#191,.T.);
#240=ORIENTED_EDGE('',*,*,#192,.F.);
#241=ORIENTED_EDGE('',*,*,#193,.T.);
#242=ORIENTED_EDGE('',*,*,#189,.T.);
#243=ORIENTED_EDGE('',*,*,#194,.T.);
#244=ORIENTED_EDGE('',*,*,#195,.F.);
#245=ORIENTED_EDGE('',*,*,#196,.T.);
#246=ORIENTED_EDGE('',*,*,#192,.T.);
#247=ORIENTED_EDGE('',*,*,#197,.T.);
#248=ORIENTED_EDGE('',*,*,#198,.F.);
#249=ORIENTED_EDGE('',*,*,#199,.T.);
#250=ORIENTED_EDGE('',*,*,#195,.T.);
#251=ORIENTED_EDGE('',*,*,#166,.T.);
#252=ORIENTED_EDGE('',*,*,#168,.T.);
#253=ORIENTED_EDGE('',*,*,#200,.T.);
#254=ORIENTED_EDGE('',*,*,#201,.F.);
#255=ORIENTED_EDGE('',*,*,#202,.T.);
#256=ORIENTED_EDGE('',*,*,#198,.T.);
#257=ORIENTED_EDGE('',*,*,#203,.T.);
#258=ORIENTED_EDGE('',*,*,#172,.F.);
#259=ORIENTED_EDGE('',*,*,#204,.T.);
#260=ORIENTED_EDGE('',*,*,#201,.T.);
#261=ORIENTED_EDGE('',*,*,#204,.F.);
#262=ORIENTED_EDGE('',*,*,#171,.F.);
#263=ORIENTED_EDGE('',*,*,#175,.F.);
#264=ORIENTED_EDGE('',*,*,#178,.F.);
#265=ORIENTED_EDGE('',*,*,#181,.F.);
#266=ORIENTED_EDGE('',*,*,#184,.F.);
#267=ORIENTED_EDGE('',*,*,#187,.F.);
#268=ORIENTED_EDGE('',*,*,#190,.F.);
#269=ORIENTED_EDGE('',*,*,#193,.F.);
#270=ORIENTED_EDGE('',*,*,#196,.F.);
#271=ORIENTED_EDGE('',*,*,#199,.F.);
#272=ORIENTED_EDGE('',*,*,#202,.F.);
#273=ORIENTED_EDGE('',*,*,#169,.F.);
#274=ORIENTED_EDGE('',*,*,#203,.F.);
#275=ORIENTED_EDGE('',*,*,#200,.F.);
#276=ORIENTED_EDGE('',*,*,#197,.F.);
#277=ORIENTED_EDGE('',*,*,#194,.F.);
#278=ORIENTED_EDGE('',*,*,#191,.F.);
#279=ORIENTED_EDGE('',*,*,#188,.F.);
#280=ORIENTED_EDGE('',*,*,#185,.F.);
#281=ORIENTED_EDGE('',*,*,#182,.F.);
#282=ORIENTED_EDGE('',*,*,#179,.F.);
#283=ORIENTED_EDGE('',*,*,#176,.F.);
#284=ORIENTED_EDGE('',*,*,#173,.F.);
#285=CYLINDRICAL_SURFACE('',#309,3.25);
#286=CYLINDRICAL_SURFACE('',#312,3.25);
#287=CYLINDRICAL_SURFACE('',#317,0.2);
#288=CYLINDRICAL_SURFACE('',#321,0.2);
#289=CYLINDRICAL_SURFACE('',#327,2.);
#290=CYLINDRICAL_SURFACE('',#331,2.);
#291=ADVANCED_FACE('',(#87,#81),#285,.F.);
#292=ADVANCED_FACE('',(#88,#82),#286,.F.);
#293=ADVANCED_FACE('',(#89),#71,.T.);
#294=ADVANCED_FACE('',(#90),#72,.T.);
#295=ADVANCED_FACE('',(#91),#287,.F.);
#296=ADVANCED_FACE('',(#92,#83,#84),#73,.T.);
#297=ADVANCED_FACE('',(#93),#288,.F.);
#298=ADVANCED_FACE('',(#94),#74,.T.);
#299=ADVANCED_FACE('',(#95),#75,.T.);
#300=ADVANCED_FACE('',(#96),#76,.T.);
#301=ADVANCED_FACE('',(#97),#289,.T.);
#302=ADVANCED_FACE('',(#98,#85,#86),#77,.T.);
#303=ADVANCED_FACE('',(#99),#290,.T.);
#304=ADVANCED_FACE('',(#100),#78,.T.);
#305=ADVANCED_FACE('',(#101),#79,.F.);
#306=ADVANCED_FACE('',(#102),#80,.T.);
#307=CLOSED_SHELL('',(#291,#292,#293,#294,#295,#296,#297,#298,#299,#300,
#301,#302,#303,#304,#305,#306));
#308=AXIS2_PLACEMENT_3D('placement',#423,#337,#338);
#309=AXIS2_PLACEMENT_3D('',#424,#339,#340);
#310=AXIS2_PLACEMENT_3D('',#426,#341,#342);
#311=AXIS2_PLACEMENT_3D('',#428,#343,#344);
#312=AXIS2_PLACEMENT_3D('',#429,#345,#346);
#313=AXIS2_PLACEMENT_3D('',#431,#347,#348);
#314=AXIS2_PLACEMENT_3D('',#433,#349,#350);
#315=AXIS2_PLACEMENT_3D('',#434,#351,#352);
#316=AXIS2_PLACEMENT_3D('',#443,#357,#358);
#317=AXIS2_PLACEMENT_3D('',#449,#362,#363);
#318=AXIS2_PLACEMENT_3D('',#451,#364,#365);
#319=AXIS2_PLACEMENT_3D('',#454,#367,#368);
#320=AXIS2_PLACEMENT_3D('',#455,#369,#370);
#321=AXIS2_PLACEMENT_3D('',#461,#374,#375);
#322=AXIS2_PLACEMENT_3D('',#463,#376,#377);
#323=AXIS2_PLACEMENT_3D('',#466,#379,#380);
#324=AXIS2_PLACEMENT_3D('',#467,#381,#382);
#325=AXIS2_PLACEMENT_3D('',#473,#386,#387);
#326=AXIS2_PLACEMENT_3D('',#479,#391,#392);
#327=AXIS2_PLACEMENT_3D('',#485,#396,#397);
#328=AXIS2_PLACEMENT_3D('',#487,#398,#399);
#329=AXIS2_PLACEMENT_3D('',#490,#401,#402);
#330=AXIS2_PLACEMENT_3D('',#491,#403,#404);
#331=AXIS2_PLACEMENT_3D('',#497,#408,#409);
#332=AXIS2_PLACEMENT_3D('',#499,#410,#411);
#333=AXIS2_PLACEMENT_3D('',#502,#413,#414);
#334=AXIS2_PLACEMENT_3D('',#503,#415,#416);
#335=AXIS2_PLACEMENT_3D('',#506,#419,#420);
#336=AXIS2_PLACEMENT_3D('',#507,#421,#422);
#337=DIRECTION('axis',(0.,0.,1.));
#338=DIRECTION('refdir',(1.,0.,0.));
#339=DIRECTION('center_axis',(0.,1.,0.));
#340=DIRECTION('ref_axis',(-1.,0.,0.));
#341=DIRECTION('center_axis',(0.,-1.,0.));
#342=DIRECTION('ref_axis',(-1.,0.,0.));
#343=DIRECTION('center_axis',(0.,1.,0.));
#344=DIRECTION('ref_axis',(-1.,0.,0.));
#345=DIRECTION('center_axis',(0.,1.,0.));
#346=DIRECTION('ref_axis',(-1.,0.,0.));
#347=DIRECTION('center_axis',(0.,-1.,0.));
#348=DIRECTION('ref_axis',(-1.,0.,0.));
#349=DIRECTION('center_axis',(0.,1.,0.));
#350=DIRECTION('ref_axis',(-1.,0.,0.));
#351=DIRECTION('center_axis',(0.,1.,0.));
#352=DIRECTION('ref_axis',(0.,0.,1.));
#353=DIRECTION('',(1.,0.,0.));
#354=DIRECTION('',(0.,0.,1.));
#355=DIRECTION('',(-1.,0.,0.));
#356=DIRECTION('',(0.,0.,1.));
#357=DIRECTION('center_axis',(1.,0.,0.));
#358=DIRECTION('ref_axis',(0.,0.,-1.));
#359=DIRECTION('',(0.,-1.,0.));
#360=DIRECTION('',(0.,0.,1.));
#361=DIRECTION('',(0.,1.,0.));
#362=DIRECTION('center_axis',(0.,0.,1.));
#363=DIRECTION('ref_axis',(1.,0.,0.));
#364=DIRECTION('center_axis',(0.,0.,1.));
#365=DIRECTION('ref_axis',(1.,0.,0.));
#366=DIRECTION('',(0.,0.,1.));
#367=DIRECTION('center_axis',(0.,0.,-1.));
#368=DIRECTION('ref_axis',(1.,0.,0.));
#369=DIRECTION('center_axis',(0.,1.,0.));
#370=DIRECTION('ref_axis',(0.,0.,1.));
#371=DIRECTION('',(1.,0.,0.));
#372=DIRECTION('',(0.,0.,1.));
#373=DIRECTION('',(-1.,0.,0.));
#374=DIRECTION('center_axis',(0.,0.,1.));
#375=DIRECTION('ref_axis',(0.,1.,0.));
#376=DIRECTION('center_axis',(0.,0.,1.));
#377=DIRECTION('ref_axis',(0.,1.,0.));
#378=DIRECTION('',(0.,0.,1.));
#379=DIRECTION('center_axis',(0.,0.,-1.));
#380=DIRECTION('ref_axis',(0.,1.,0.));
#381=DIRECTION('center_axis',(-1.,0.,0.));
#382=DIRECTION('ref_axis',(0.,0.,1.));
#383=DIRECTION('',(0.,1.,0.));
#384=DIRECTION('',(0.,0.,1.));
#385=DIRECTION('',(0.,-1.,0.));
#386=DIRECTION('center_axis',(0.,1.,0.));
#387=DIRECTION('ref_axis',(0.,0.,1.));
#388=DIRECTION('',(1.,0.,0.));
#389=DIRECTION('',(0.,0.,1.));
#390=DIRECTION('',(-1.,0.,0.));
#391=DIRECTION('center_axis',(1.,-4.35381578284375E-17,0.));
#392=DIRECTION('ref_axis',(0.,0.,-1.));
#393=DIRECTION('',(-4.35381578284375E-17,-1.,0.));
#394=DIRECTION('',(0.,0.,1.));
#395=DIRECTION('',(4.35381578284375E-17,1.,0.));
#396=DIRECTION('center_axis',(0.,0.,1.));
#397=DIRECTION('ref_axis',(0.,-1.,0.));
#398=DIRECTION('center_axis',(0.,0.,-1.));
#399=DIRECTION('ref_axis',(0.,-1.,0.));
#400=DIRECTION('',(0.,0.,1.));
#401=DIRECTION('center_axis',(0.,0.,1.));
#402=DIRECTION('ref_axis',(0.,-1.,0.));
#403=DIRECTION('center_axis',(0.,-1.,0.));
#404=DIRECTION('ref_axis',(0.,0.,-1.));
#405=DIRECTION('',(-1.,0.,0.));
#406=DIRECTION('',(0.,0.,1.));
#407=DIRECTION('',(1.,0.,0.));
#408=DIRECTION('center_axis',(0.,0.,1.));
#409=DIRECTION('ref_axis',(-1.,0.,0.));
#410=DIRECTION('center_axis',(0.,0.,-1.));
#411=DIRECTION('ref_axis',(-1.,0.,0.));
#412=DIRECTION('',(0.,0.,1.));
#413=DIRECTION('center_axis',(0.,0.,1.));
#414=DIRECTION('ref_axis',(-1.,0.,0.));
#415=DIRECTION('center_axis',(-1.,-8.7076315656875E-17,0.));
#416=DIRECTION('ref_axis',(0.,0.,1.));
#417=DIRECTION('',(-8.7076315656875E-17,1.,0.));
#418=DIRECTION('',(8.7076315656875E-17,-1.,0.));
#419=DIRECTION('center_axis',(0.,0.,1.));
#420=DIRECTION('ref_axis',(1.,0.,0.));
#421=DIRECTION('center_axis',(0.,0.,1.));
#422=DIRECTION('ref_axis',(1.,0.,0.));
#423=CARTESIAN_POINT('',(0.,0.,0.));
#424=CARTESIAN_POINT('Origin',(-1.86861649954635,-15.5441414674759,58.));
#425=CARTESIAN_POINT('',(1.38138350045365,-13.2441414674759,58.));
#426=CARTESIAN_POINT('Origin',(-1.86861649954635,-13.2441414674759,58.));
#427=CARTESIAN_POINT('',(1.38138350045365,-15.5441414674759,58.));
#428=CARTESIAN_POINT('Origin',(-1.86861649954635,-15.5441414674759,58.));
#429=CARTESIAN_POINT('Origin',(-1.86861649954635,-15.5441414674759,18.));
#430=CARTESIAN_POINT('',(1.38138350045365,-13.2441414674759,18.));
#431=CARTESIAN_POINT('Origin',(-1.86861649954635,-13.2441414674759,18.));
#432=CARTESIAN_POINT('',(1.38138350045365,-15.5441414674759,18.));
#433=CARTESIAN_POINT('Origin',(-1.86861649954635,-15.5441414674759,18.));
#434=CARTESIAN_POINT('Origin',(-13.2686164995463,11.9558585325241,0.));
#435=CARTESIAN_POINT('',(-13.2686164995463,11.9558585325241,76.));
#436=CARTESIAN_POINT('',(-10.9686164995463,11.9558585325241,76.));
#437=CARTESIAN_POINT('',(-10.9686164995463,11.9558585325241,76.));
#438=CARTESIAN_POINT('',(-10.9686164995463,11.9558585325241,0.));
#439=CARTESIAN_POINT('',(-10.9686164995463,11.9558585325241,0.));
#440=CARTESIAN_POINT('',(-13.2686164995463,11.9558585325241,0.));
#441=CARTESIAN_POINT('',(-10.9686164995463,11.9558585325241,0.));
#442=CARTESIAN_POINT('',(-13.2686164995463,11.9558585325241,0.));
#443=CARTESIAN_POINT('Origin',(-10.9686164995463,11.9558585325241,0.));
#444=CARTESIAN_POINT('',(-10.9686164995463,-13.0441414674759,76.));
#445=CARTESIAN_POINT('',(-10.9686164995463,-13.0441414674759,76.));
#446=CARTESIAN_POINT('',(-10.9686164995463,-13.0441414674759,0.));
#447=CARTESIAN_POINT('',(-10.9686164995463,-13.0441414674759,0.));
#448=CARTESIAN_POINT('',(-10.9686164995463,-13.0441414674759,0.));
#449=CARTESIAN_POINT('Origin',(-10.7686164995463,-13.0441414674759,0.));
#450=CARTESIAN_POINT('',(-10.7686164995463,-13.2441414674759,76.));
#451=CARTESIAN_POINT('Origin',(-10.7686164995463,-13.0441414674759,76.));
#452=CARTESIAN_POINT('',(-10.7686164995463,-13.2441414674759,0.));
#453=CARTESIAN_POINT('',(-10.7686164995463,-13.2441414674759,0.));
#454=CARTESIAN_POINT('Origin',(-10.7686164995463,-13.0441414674759,0.));
#455=CARTESIAN_POINT('Origin',(-10.7686164995463,-13.2441414674759,0.));
#456=CARTESIAN_POINT('',(7.03138350045365,-13.2441414674759,76.));
#457=CARTESIAN_POINT('',(7.03138350045365,-13.2441414674759,76.));
#458=CARTESIAN_POINT('',(7.03138350045365,-13.2441414674759,0.));
#459=CARTESIAN_POINT('',(7.03138350045365,-13.2441414674759,0.));
#460=CARTESIAN_POINT('',(7.03138350045365,-13.2441414674759,0.));
#461=CARTESIAN_POINT('Origin',(7.03138350045365,-13.0441414674759,0.));
#462=CARTESIAN_POINT('',(7.23138350045365,-13.0441414674759,76.));
#463=CARTESIAN_POINT('Origin',(7.03138350045365,-13.0441414674759,76.));
#464=CARTESIAN_POINT('',(7.23138350045365,-13.0441414674759,0.));
#465=CARTESIAN_POINT('',(7.23138350045365,-13.0441414674759,0.));
#466=CARTESIAN_POINT('Origin',(7.03138350045365,-13.0441414674759,0.));
#467=CARTESIAN_POINT('Origin',(7.23138350045365,-13.0441414674759,0.));
#468=CARTESIAN_POINT('',(7.23138350045365,11.9558585325241,76.));
#469=CARTESIAN_POINT('',(7.23138350045365,11.9558585325241,76.));
#470=CARTESIAN_POINT('',(7.23138350045365,11.9558585325241,0.));
#471=CARTESIAN_POINT('',(7.23138350045365,11.9558585325241,0.));
#472=CARTESIAN_POINT('',(7.23138350045365,11.9558585325241,0.));
#473=CARTESIAN_POINT('Origin',(7.23138350045365,11.9558585325241,0.));
#474=CARTESIAN_POINT('',(9.53138350045365,11.9558585325241,76.));
#475=CARTESIAN_POINT('',(9.53138350045365,11.9558585325241,76.));
#476=CARTESIAN_POINT('',(9.53138350045365,11.9558585325241,0.));
#477=CARTESIAN_POINT('',(9.53138350045365,11.9558585325241,0.));
#478=CARTESIAN_POINT('',(9.53138350045365,11.9558585325241,0.));
#479=CARTESIAN_POINT('Origin',(9.53138350045365,11.9558585325241,0.));
#480=CARTESIAN_POINT('',(9.53138350045365,-13.5441414674759,76.));
#481=CARTESIAN_POINT('',(9.53138350045365,-13.5441414674759,76.));
#482=CARTESIAN_POINT('',(9.53138350045365,-13.5441414674759,0.));
#483=CARTESIAN_POINT('',(9.53138350045365,-13.5441414674759,0.));
#484=CARTESIAN_POINT('',(9.53138350045365,-13.5441414674759,0.));
#485=CARTESIAN_POINT('Origin',(7.53138350045365,-13.5441414674759,0.));
#486=CARTESIAN_POINT('',(7.53138350045365,-15.5441414674759,76.));
#487=CARTESIAN_POINT('Origin',(7.53138350045365,-13.5441414674759,76.));
#488=CARTESIAN_POINT('',(7.53138350045365,-15.5441414674759,0.));
#489=CARTESIAN_POINT('',(7.53138350045365,-15.5441414674759,0.));
#490=CARTESIAN_POINT('Origin',(7.53138350045365,-13.5441414674759,0.));
#491=CARTESIAN_POINT('Origin',(7.53138350045365,-15.5441414674759,0.));
#492=CARTESIAN_POINT('',(-11.2686164995463,-15.5441414674759,76.));
#493=CARTESIAN_POINT('',(-11.2686164995463,-15.5441414674759,76.));
#494=CARTESIAN_POINT('',(-11.2686164995463,-15.5441414674759,0.));
#495=CARTESIAN_POINT('',(-11.2686164995463,-15.5441414674759,0.));
#496=CARTESIAN_POINT('',(-11.2686164995463,-15.5441414674759,0.));
#497=CARTESIAN_POINT('Origin',(-11.2686164995463,-13.5441414674759,0.));
#498=CARTESIAN_POINT('',(-13.2686164995463,-13.5441414674759,76.));
#499=CARTESIAN_POINT('Origin',(-11.2686164995463,-13.5441414674759,76.));
#500=CARTESIAN_POINT('',(-13.2686164995463,-13.5441414674759,0.));
#501=CARTESIAN_POINT('',(-13.2686164995463,-13.5441414674759,0.));
#502=CARTESIAN_POINT('Origin',(-11.2686164995463,-13.5441414674759,0.));
#503=CARTESIAN_POINT('Origin',(-13.2686164995463,-13.5441414674759,0.));
#504=CARTESIAN_POINT('',(-13.2686164995463,11.9558585325241,76.));
#505=CARTESIAN_POINT('',(-13.2686164995463,11.9558585325241,0.));
#506=CARTESIAN_POINT('Origin',(-1.86861649954635,-4.30476778865542,0.));
#507=CARTESIAN_POINT('Origin',(-1.86861649954635,-4.30476778865542,76.));
#508=UNCERTAINTY_MEASURE_WITH_UNIT(LENGTH_MEASURE(0.01),#512,
'DISTANCE_ACCURACY_VALUE',
'Maximum model space distance between geometric entities at asserted c
onnectivities');
#509=UNCERTAINTY_MEASURE_WITH_UNIT(LENGTH_MEASURE(1.E-6),#512,
'DISTANCE_ACCURACY_VALUE',
'Maximum model space distance between geometric entities at asserted c
onnectivities');
#510=(
GEOMETRIC_REPRESENTATION_CONTEXT(3)
GLOBAL_UNCERTAINTY_ASSIGNED_CONTEXT((#508))
GLOBAL_UNIT_ASSIGNED_CONTEXT((#512,#515,#513))
REPRESENTATION_CONTEXT('','3D')
);
#511=(
GEOMETRIC_REPRESENTATION_CONTEXT(3)
GLOBAL_UNCERTAINTY_ASSIGNED_CONTEXT((#509))
GLOBAL_UNIT_ASSIGNED_CONTEXT((#512,#515,#513))
REPRESENTATION_CONTEXT('','3D')
);
#512=(
LENGTH_UNIT()
NAMED_UNIT(*)
SI_UNIT(.MILLI.,.METRE.)
);
#513=(
NAMED_UNIT(*)
SI_UNIT($,.STERADIAN.)
SOLID_ANGLE_UNIT()
);
#514=DIMENSIONAL_EXPONENTS(0.,0.,0.,0.,0.,0.,0.);
#515=(
CONVERSION_BASED_UNIT('degree',#517)
NAMED_UNIT(#514)
PLANE_ANGLE_UNIT()
);
#516=(
NAMED_UNIT(*)
PLANE_ANGLE_UNIT()
SI_UNIT($,.RADIAN.)
);
#517=PLANE_ANGLE_MEASURE_WITH_UNIT(PLANE_ANGLE_MEASURE(0.01745329252),#516);
#518=SHAPE_DEFINITION_REPRESENTATION(#519,#520);
#519=PRODUCT_DEFINITION_SHAPE('',$,#522);
#520=SHAPE_REPRESENTATION('',(#308),#510);
#521=PRODUCT_DEFINITION_CONTEXT('part definition',#526,'design');
#522=PRODUCT_DEFINITION('1109M','1109M',#523,#521);
#523=PRODUCT_DEFINITION_FORMATION('',$,#528);
#524=PRODUCT_RELATED_PRODUCT_CATEGORY('1109M','1109M',(#528));
#525=APPLICATION_PROTOCOL_DEFINITION('international standard',
'automotive_design',2009,#526);
#526=APPLICATION_CONTEXT(
'Core Data for Automotive Mechanical Design Process');
#527=PRODUCT_CONTEXT('part definition',#526,'mechanical');
#528=PRODUCT('1109M','1109M',$,(#527));
#529=PRESENTATION_STYLE_ASSIGNMENT((#530));
#530=SURFACE_STYLE_USAGE(.BOTH.,#531);
#531=SURFACE_SIDE_STYLE($,(#532));
#532=SURFACE_STYLE_FILL_AREA(#533);
#533=FILL_AREA_STYLE($,(#534));
#534=FILL_AREA_STYLE_COLOUR($,#535);
#535=COLOUR_RGB('',0.752941176470588,0.752941176470588,0.752941176470588);
ENDSEC;
END-ISO-10303-21;
