ISO-10303-21;
HEADER;
/* Generated by software containing ST-Developer
 * from STEP Tools, Inc. (www.steptools.com) 
 */

FILE_DESCRIPTION(
/* description */ (''),
/* implementation_level */ '2;1');

FILE_NAME(
/* name */ 'R:\\BE\\Transfert-temporaire\\19892.stp',
/* time_stamp */ '2019-08-13T14:47:50+02:00',
/* author */ ('DIDIERR'),
/* organization */ (''),
/* preprocessor_version */ 'ST-DEVELOPER v17.2',
/* originating_system */ 'Autodesk Inventor 2019',
/* authorisation */ '');

FILE_SCHEMA (('AUTOMOTIVE_DESIGN { 1 0 10303 214 3 1 1 }'));
ENDSEC;

DATA;
#10=MECHANICAL_DESIGN_GEOMETRIC_PRESENTATION_REPRESENTATION('',(#13),#601);
#11=SHAPE_REPRESENTATION_RELATIONSHIP('SRR','None',#608,#12);
#12=ADVANCED_BREP_SHAPE_REPRESENTATION('',(#14),#600);
#13=STYLED_ITEM('',(#617),#14);
#14=MANIFOLD_SOLID_BREP('Solide1',#343);
#15=PLANE('',#366);
#16=PLANE('',#374);
#17=PLANE('',#377);
#18=PLANE('',#378);
#19=PLANE('',#379);
#20=PLANE('',#384);
#21=PLANE('',#385);
#22=PLANE('',#390);
#23=PLANE('',#395);
#24=PLANE('',#396);
#25=FACE_OUTER_BOUND('',#43,.T.);
#26=FACE_OUTER_BOUND('',#44,.T.);
#27=FACE_OUTER_BOUND('',#45,.T.);
#28=FACE_OUTER_BOUND('',#46,.T.);
#29=FACE_OUTER_BOUND('',#47,.T.);
#30=FACE_OUTER_BOUND('',#48,.T.);
#31=FACE_OUTER_BOUND('',#49,.T.);
#32=FACE_OUTER_BOUND('',#50,.T.);
#33=FACE_OUTER_BOUND('',#51,.T.);
#34=FACE_OUTER_BOUND('',#52,.T.);
#35=FACE_OUTER_BOUND('',#53,.T.);
#36=FACE_OUTER_BOUND('',#54,.T.);
#37=FACE_OUTER_BOUND('',#55,.T.);
#38=FACE_OUTER_BOUND('',#56,.T.);
#39=FACE_OUTER_BOUND('',#57,.T.);
#40=FACE_OUTER_BOUND('',#58,.T.);
#41=FACE_OUTER_BOUND('',#59,.T.);
#42=FACE_OUTER_BOUND('',#60,.T.);
#43=EDGE_LOOP('',(#221,#222,#223,#224));
#44=EDGE_LOOP('',(#225,#226,#227,#228,#229,#230,#231,#232,#233,#234,#235,
#236,#237,#238,#239,#240));
#45=EDGE_LOOP('',(#241,#242,#243,#244));
#46=EDGE_LOOP('',(#245,#246,#247,#248));
#47=EDGE_LOOP('',(#249,#250,#251,#252));
#48=EDGE_LOOP('',(#253,#254,#255,#256));
#49=EDGE_LOOP('',(#257,#258,#259,#260));
#50=EDGE_LOOP('',(#261,#262,#263,#264));
#51=EDGE_LOOP('',(#265,#266,#267,#268));
#52=EDGE_LOOP('',(#269,#270,#271,#272));
#53=EDGE_LOOP('',(#273,#274,#275,#276));
#54=EDGE_LOOP('',(#277,#278,#279,#280));
#55=EDGE_LOOP('',(#281,#282,#283,#284));
#56=EDGE_LOOP('',(#285,#286,#287,#288));
#57=EDGE_LOOP('',(#289,#290,#291,#292));
#58=EDGE_LOOP('',(#293,#294,#295,#296));
#59=EDGE_LOOP('',(#297,#298,#299,#300,#301,#302,#303,#304,#305,#306,#307,
#308,#309,#310,#311,#312));
#60=EDGE_LOOP('',(#313,#314,#315,#316));
#61=LINE('',#505,#93);
#62=LINE('',#508,#94);
#63=LINE('',#511,#95);
#64=LINE('',#515,#96);
#65=LINE('',#519,#97);
#66=LINE('',#521,#98);
#67=LINE('',#523,#99);
#68=LINE('',#527,#100);
#69=LINE('',#531,#101);
#70=LINE('',#537,#102);
#71=LINE('',#541,#103);
#72=LINE('',#542,#104);
#73=LINE('',#545,#105);
#74=LINE('',#548,#106);
#75=LINE('',#551,#107);
#76=LINE('',#552,#108);
#77=LINE('',#555,#109);
#78=LINE('',#557,#110);
#79=LINE('',#558,#111);
#80=LINE('',#561,#112);
#81=LINE('',#563,#113);
#82=LINE('',#564,#114);
#83=LINE('',#567,#115);
#84=LINE('',#572,#116);
#85=LINE('',#575,#117);
#86=LINE('',#576,#118);
#87=LINE('',#579,#119);
#88=LINE('',#580,#120);
#89=LINE('',#586,#121);
#90=LINE('',#589,#122);
#91=LINE('',#594,#123);
#92=LINE('',#596,#124);
#93=VECTOR('',#403,10.);
#94=VECTOR('',#406,10.);
#95=VECTOR('',#409,10.);
#96=VECTOR('',#412,10.);
#97=VECTOR('',#415,10.);
#98=VECTOR('',#416,10.);
#99=VECTOR('',#417,10.);
#100=VECTOR('',#420,10.);
#101=VECTOR('',#423,10.);
#102=VECTOR('',#428,10.);
#103=VECTOR('',#433,10.);
#104=VECTOR('',#434,10.);
#105=VECTOR('',#437,10.);
#106=VECTOR('',#440,10.);
#107=VECTOR('',#443,10.);
#108=VECTOR('',#444,10.);
#109=VECTOR('',#447,10.);
#110=VECTOR('',#448,10.);
#111=VECTOR('',#449,10.);
#112=VECTOR('',#452,10.);
#113=VECTOR('',#453,10.);
#114=VECTOR('',#454,10.);
#115=VECTOR('',#457,10.);
#116=VECTOR('',#464,10.);
#117=VECTOR('',#467,10.);
#118=VECTOR('',#468,10.);
#119=VECTOR('',#471,10.);
#120=VECTOR('',#472,10.);
#121=VECTOR('',#483,10.);
#122=VECTOR('',#486,10.);
#123=VECTOR('',#493,10.);
#124=VECTOR('',#496,10.);
#125=CIRCLE('',#364,6.4);
#126=CIRCLE('',#365,6.4);
#127=CIRCLE('',#367,0.800000000000028);
#128=CIRCLE('',#368,0.399999999999972);
#129=CIRCLE('',#369,0.799999999999972);
#130=CIRCLE('',#370,0.400000000000028);
#131=CIRCLE('',#371,5.);
#132=CIRCLE('',#372,41.9416666666667);
#133=CIRCLE('',#373,41.5416666666667);
#134=CIRCLE('',#376,5.);
#135=CIRCLE('',#381,0.39999999999997);
#136=CIRCLE('',#383,0.799999999999972);
#137=CIRCLE('',#387,0.400000000000028);
#138=CIRCLE('',#389,0.80000000000003);
#139=CIRCLE('',#392,41.5416666666667);
#140=CIRCLE('',#394,41.9416666666667);
#141=VERTEX_POINT('',#501);
#142=VERTEX_POINT('',#502);
#143=VERTEX_POINT('',#504);
#144=VERTEX_POINT('',#506);
#145=VERTEX_POINT('',#510);
#146=VERTEX_POINT('',#512);
#147=VERTEX_POINT('',#514);
#148=VERTEX_POINT('',#516);
#149=VERTEX_POINT('',#518);
#150=VERTEX_POINT('',#520);
#151=VERTEX_POINT('',#522);
#152=VERTEX_POINT('',#524);
#153=VERTEX_POINT('',#526);
#154=VERTEX_POINT('',#528);
#155=VERTEX_POINT('',#530);
#156=VERTEX_POINT('',#532);
#157=VERTEX_POINT('',#534);
#158=VERTEX_POINT('',#536);
#159=VERTEX_POINT('',#540);
#160=VERTEX_POINT('',#544);
#161=VERTEX_POINT('',#546);
#162=VERTEX_POINT('',#550);
#163=VERTEX_POINT('',#554);
#164=VERTEX_POINT('',#556);
#165=VERTEX_POINT('',#560);
#166=VERTEX_POINT('',#562);
#167=VERTEX_POINT('',#566);
#168=VERTEX_POINT('',#570);
#169=VERTEX_POINT('',#574);
#170=VERTEX_POINT('',#578);
#171=VERTEX_POINT('',#588);
#172=VERTEX_POINT('',#592);
#173=EDGE_CURVE('',#141,#142,#125,.T.);
#174=EDGE_CURVE('',#142,#143,#61,.T.);
#175=EDGE_CURVE('',#143,#144,#126,.T.);
#176=EDGE_CURVE('',#144,#141,#62,.T.);
#177=EDGE_CURVE('',#141,#145,#63,.T.);
#178=EDGE_CURVE('',#145,#146,#127,.T.);
#179=EDGE_CURVE('',#146,#147,#64,.T.);
#180=EDGE_CURVE('',#147,#148,#128,.T.);
#181=EDGE_CURVE('',#148,#149,#65,.T.);
#182=EDGE_CURVE('',#149,#150,#66,.T.);
#183=EDGE_CURVE('',#151,#150,#67,.T.);
#184=EDGE_CURVE('',#152,#151,#129,.T.);
#185=EDGE_CURVE('',#153,#152,#68,.T.);
#186=EDGE_CURVE('',#154,#153,#130,.T.);
#187=EDGE_CURVE('',#155,#154,#69,.T.);
#188=EDGE_CURVE('',#156,#155,#131,.T.);
#189=EDGE_CURVE('',#157,#156,#132,.T.);
#190=EDGE_CURVE('',#157,#158,#70,.T.);
#191=EDGE_CURVE('',#158,#142,#133,.T.);
#192=EDGE_CURVE('',#144,#159,#71,.T.);
#193=EDGE_CURVE('',#159,#145,#72,.T.);
#194=EDGE_CURVE('',#155,#160,#73,.T.);
#195=EDGE_CURVE('',#160,#161,#134,.T.);
#196=EDGE_CURVE('',#161,#156,#74,.T.);
#197=EDGE_CURVE('',#154,#162,#75,.T.);
#198=EDGE_CURVE('',#160,#162,#76,.T.);
#199=EDGE_CURVE('',#163,#149,#77,.T.);
#200=EDGE_CURVE('',#164,#148,#78,.T.);
#201=EDGE_CURVE('',#164,#163,#79,.T.);
#202=EDGE_CURVE('',#150,#165,#80,.T.);
#203=EDGE_CURVE('',#166,#165,#81,.T.);
#204=EDGE_CURVE('',#151,#166,#82,.T.);
#205=EDGE_CURVE('',#167,#147,#83,.T.);
#206=EDGE_CURVE('',#167,#164,#135,.T.);
#207=EDGE_CURVE('',#168,#166,#136,.T.);
#208=EDGE_CURVE('',#152,#168,#84,.T.);
#209=EDGE_CURVE('',#169,#168,#85,.T.);
#210=EDGE_CURVE('',#153,#169,#86,.T.);
#211=EDGE_CURVE('',#170,#146,#87,.T.);
#212=EDGE_CURVE('',#170,#167,#88,.T.);
#213=EDGE_CURVE('',#162,#169,#137,.T.);
#214=EDGE_CURVE('',#159,#170,#138,.T.);
#215=EDGE_CURVE('',#165,#163,#89,.T.);
#216=EDGE_CURVE('',#158,#171,#90,.T.);
#217=EDGE_CURVE('',#171,#143,#139,.T.);
#218=EDGE_CURVE('',#172,#161,#140,.T.);
#219=EDGE_CURVE('',#172,#157,#91,.T.);
#220=EDGE_CURVE('',#171,#172,#92,.T.);
#221=ORIENTED_EDGE('',*,*,#173,.T.);
#222=ORIENTED_EDGE('',*,*,#174,.T.);
#223=ORIENTED_EDGE('',*,*,#175,.T.);
#224=ORIENTED_EDGE('',*,*,#176,.T.);
#225=ORIENTED_EDGE('',*,*,#173,.F.);
#226=ORIENTED_EDGE('',*,*,#177,.T.);
#227=ORIENTED_EDGE('',*,*,#178,.T.);
#228=ORIENTED_EDGE('',*,*,#179,.T.);
#229=ORIENTED_EDGE('',*,*,#180,.T.);
#230=ORIENTED_EDGE('',*,*,#181,.T.);
#231=ORIENTED_EDGE('',*,*,#182,.T.);
#232=ORIENTED_EDGE('',*,*,#183,.F.);
#233=ORIENTED_EDGE('',*,*,#184,.F.);
#234=ORIENTED_EDGE('',*,*,#185,.F.);
#235=ORIENTED_EDGE('',*,*,#186,.F.);
#236=ORIENTED_EDGE('',*,*,#187,.F.);
#237=ORIENTED_EDGE('',*,*,#188,.F.);
#238=ORIENTED_EDGE('',*,*,#189,.F.);
#239=ORIENTED_EDGE('',*,*,#190,.T.);
#240=ORIENTED_EDGE('',*,*,#191,.T.);
#241=ORIENTED_EDGE('',*,*,#176,.F.);
#242=ORIENTED_EDGE('',*,*,#192,.T.);
#243=ORIENTED_EDGE('',*,*,#193,.T.);
#244=ORIENTED_EDGE('',*,*,#177,.F.);
#245=ORIENTED_EDGE('',*,*,#188,.T.);
#246=ORIENTED_EDGE('',*,*,#194,.T.);
#247=ORIENTED_EDGE('',*,*,#195,.T.);
#248=ORIENTED_EDGE('',*,*,#196,.T.);
#249=ORIENTED_EDGE('',*,*,#194,.F.);
#250=ORIENTED_EDGE('',*,*,#187,.T.);
#251=ORIENTED_EDGE('',*,*,#197,.T.);
#252=ORIENTED_EDGE('',*,*,#198,.F.);
#253=ORIENTED_EDGE('',*,*,#199,.T.);
#254=ORIENTED_EDGE('',*,*,#181,.F.);
#255=ORIENTED_EDGE('',*,*,#200,.F.);
#256=ORIENTED_EDGE('',*,*,#201,.T.);
#257=ORIENTED_EDGE('',*,*,#202,.T.);
#258=ORIENTED_EDGE('',*,*,#203,.F.);
#259=ORIENTED_EDGE('',*,*,#204,.F.);
#260=ORIENTED_EDGE('',*,*,#183,.T.);
#261=ORIENTED_EDGE('',*,*,#200,.T.);
#262=ORIENTED_EDGE('',*,*,#180,.F.);
#263=ORIENTED_EDGE('',*,*,#205,.F.);
#264=ORIENTED_EDGE('',*,*,#206,.T.);
#265=ORIENTED_EDGE('',*,*,#204,.T.);
#266=ORIENTED_EDGE('',*,*,#207,.F.);
#267=ORIENTED_EDGE('',*,*,#208,.F.);
#268=ORIENTED_EDGE('',*,*,#184,.T.);
#269=ORIENTED_EDGE('',*,*,#208,.T.);
#270=ORIENTED_EDGE('',*,*,#209,.F.);
#271=ORIENTED_EDGE('',*,*,#210,.F.);
#272=ORIENTED_EDGE('',*,*,#185,.T.);
#273=ORIENTED_EDGE('',*,*,#205,.T.);
#274=ORIENTED_EDGE('',*,*,#179,.F.);
#275=ORIENTED_EDGE('',*,*,#211,.F.);
#276=ORIENTED_EDGE('',*,*,#212,.T.);
#277=ORIENTED_EDGE('',*,*,#210,.T.);
#278=ORIENTED_EDGE('',*,*,#213,.F.);
#279=ORIENTED_EDGE('',*,*,#197,.F.);
#280=ORIENTED_EDGE('',*,*,#186,.T.);
#281=ORIENTED_EDGE('',*,*,#211,.T.);
#282=ORIENTED_EDGE('',*,*,#178,.F.);
#283=ORIENTED_EDGE('',*,*,#193,.F.);
#284=ORIENTED_EDGE('',*,*,#214,.T.);
#285=ORIENTED_EDGE('',*,*,#199,.F.);
#286=ORIENTED_EDGE('',*,*,#215,.F.);
#287=ORIENTED_EDGE('',*,*,#202,.F.);
#288=ORIENTED_EDGE('',*,*,#182,.F.);
#289=ORIENTED_EDGE('',*,*,#174,.F.);
#290=ORIENTED_EDGE('',*,*,#191,.F.);
#291=ORIENTED_EDGE('',*,*,#216,.T.);
#292=ORIENTED_EDGE('',*,*,#217,.T.);
#293=ORIENTED_EDGE('',*,*,#196,.F.);
#294=ORIENTED_EDGE('',*,*,#218,.F.);
#295=ORIENTED_EDGE('',*,*,#219,.T.);
#296=ORIENTED_EDGE('',*,*,#189,.T.);
#297=ORIENTED_EDGE('',*,*,#175,.F.);
#298=ORIENTED_EDGE('',*,*,#217,.F.);
#299=ORIENTED_EDGE('',*,*,#220,.T.);
#300=ORIENTED_EDGE('',*,*,#218,.T.);
#301=ORIENTED_EDGE('',*,*,#195,.F.);
#302=ORIENTED_EDGE('',*,*,#198,.T.);
#303=ORIENTED_EDGE('',*,*,#213,.T.);
#304=ORIENTED_EDGE('',*,*,#209,.T.);
#305=ORIENTED_EDGE('',*,*,#207,.T.);
#306=ORIENTED_EDGE('',*,*,#203,.T.);
#307=ORIENTED_EDGE('',*,*,#215,.T.);
#308=ORIENTED_EDGE('',*,*,#201,.F.);
#309=ORIENTED_EDGE('',*,*,#206,.F.);
#310=ORIENTED_EDGE('',*,*,#212,.F.);
#311=ORIENTED_EDGE('',*,*,#214,.F.);
#312=ORIENTED_EDGE('',*,*,#192,.F.);
#313=ORIENTED_EDGE('',*,*,#220,.F.);
#314=ORIENTED_EDGE('',*,*,#216,.F.);
#315=ORIENTED_EDGE('',*,*,#190,.F.);
#316=ORIENTED_EDGE('',*,*,#219,.F.);
#317=CYLINDRICAL_SURFACE('',#363,6.4);
#318=CYLINDRICAL_SURFACE('',#375,5.);
#319=CYLINDRICAL_SURFACE('',#380,0.399999999999971);
#320=CYLINDRICAL_SURFACE('',#382,0.799999999999972);
#321=CYLINDRICAL_SURFACE('',#386,0.400000000000028);
#322=CYLINDRICAL_SURFACE('',#388,0.800000000000029);
#323=CYLINDRICAL_SURFACE('',#391,41.5416666666667);
#324=CYLINDRICAL_SURFACE('',#393,41.9416666666667);
#325=ADVANCED_FACE('',(#25),#317,.T.);
#326=ADVANCED_FACE('',(#26),#15,.T.);
#327=ADVANCED_FACE('',(#27),#16,.T.);
#328=ADVANCED_FACE('',(#28),#318,.F.);
#329=ADVANCED_FACE('',(#29),#17,.T.);
#330=ADVANCED_FACE('',(#30),#18,.T.);
#331=ADVANCED_FACE('',(#31),#19,.T.);
#332=ADVANCED_FACE('',(#32),#319,.F.);
#333=ADVANCED_FACE('',(#33),#320,.T.);
#334=ADVANCED_FACE('',(#34),#20,.T.);
#335=ADVANCED_FACE('',(#35),#21,.T.);
#336=ADVANCED_FACE('',(#36),#321,.F.);
#337=ADVANCED_FACE('',(#37),#322,.T.);
#338=ADVANCED_FACE('',(#38),#22,.F.);
#339=ADVANCED_FACE('',(#39),#323,.F.);
#340=ADVANCED_FACE('',(#40),#324,.T.);
#341=ADVANCED_FACE('',(#41),#23,.T.);
#342=ADVANCED_FACE('',(#42),#24,.T.);
#343=CLOSED_SHELL('',(#325,#326,#327,#328,#329,#330,#331,#332,#333,#334,
#335,#336,#337,#338,#339,#340,#341,#342));
#344=DERIVED_UNIT_ELEMENT(#346,1.);
#345=DERIVED_UNIT_ELEMENT(#603,3.);
#346=(
MASS_UNIT()
NAMED_UNIT(*)
SI_UNIT($,.GRAM.)
);
#347=DERIVED_UNIT((#344,#345));
#348=MEASURE_REPRESENTATION_ITEM('density measure',
POSITIVE_RATIO_MEASURE(1.),#347);
#349=PROPERTY_DEFINITION_REPRESENTATION(#354,#351);
#350=PROPERTY_DEFINITION_REPRESENTATION(#355,#352);
#351=REPRESENTATION('material name',(#353),#600);
#352=REPRESENTATION('density',(#348),#600);
#353=DESCRIPTIVE_REPRESENTATION_ITEM('G\X\E9n\X\E9rique','G\X\E9n\X\E9
rique');
#354=PROPERTY_DEFINITION('material property','material name',#610);
#355=PROPERTY_DEFINITION('material property','density of part',#610);
#356=DATE_TIME_ROLE('creation_date');
#357=APPLIED_DATE_AND_TIME_ASSIGNMENT(#358,#356,(#610));
#358=DATE_AND_TIME(#359,#360);
#359=CALENDAR_DATE(2004,2,6);
#360=LOCAL_TIME(14,7,12.,#361);
#361=COORDINATED_UNIVERSAL_TIME_OFFSET(0,0,.BEHIND.);
#362=AXIS2_PLACEMENT_3D('placement',#499,#397,#398);
#363=AXIS2_PLACEMENT_3D('',#500,#399,#400);
#364=AXIS2_PLACEMENT_3D('',#503,#401,#402);
#365=AXIS2_PLACEMENT_3D('',#507,#404,#405);
#366=AXIS2_PLACEMENT_3D('',#509,#407,#408);
#367=AXIS2_PLACEMENT_3D('',#513,#410,#411);
#368=AXIS2_PLACEMENT_3D('',#517,#413,#414);
#369=AXIS2_PLACEMENT_3D('',#525,#418,#419);
#370=AXIS2_PLACEMENT_3D('',#529,#421,#422);
#371=AXIS2_PLACEMENT_3D('',#533,#424,#425);
#372=AXIS2_PLACEMENT_3D('',#535,#426,#427);
#373=AXIS2_PLACEMENT_3D('',#538,#429,#430);
#374=AXIS2_PLACEMENT_3D('',#539,#431,#432);
#375=AXIS2_PLACEMENT_3D('',#543,#435,#436);
#376=AXIS2_PLACEMENT_3D('',#547,#438,#439);
#377=AXIS2_PLACEMENT_3D('',#549,#441,#442);
#378=AXIS2_PLACEMENT_3D('',#553,#445,#446);
#379=AXIS2_PLACEMENT_3D('',#559,#450,#451);
#380=AXIS2_PLACEMENT_3D('',#565,#455,#456);
#381=AXIS2_PLACEMENT_3D('',#568,#458,#459);
#382=AXIS2_PLACEMENT_3D('',#569,#460,#461);
#383=AXIS2_PLACEMENT_3D('',#571,#462,#463);
#384=AXIS2_PLACEMENT_3D('',#573,#465,#466);
#385=AXIS2_PLACEMENT_3D('',#577,#469,#470);
#386=AXIS2_PLACEMENT_3D('',#581,#473,#474);
#387=AXIS2_PLACEMENT_3D('',#582,#475,#476);
#388=AXIS2_PLACEMENT_3D('',#583,#477,#478);
#389=AXIS2_PLACEMENT_3D('',#584,#479,#480);
#390=AXIS2_PLACEMENT_3D('',#585,#481,#482);
#391=AXIS2_PLACEMENT_3D('',#587,#484,#485);
#392=AXIS2_PLACEMENT_3D('',#590,#487,#488);
#393=AXIS2_PLACEMENT_3D('',#591,#489,#490);
#394=AXIS2_PLACEMENT_3D('',#593,#491,#492);
#395=AXIS2_PLACEMENT_3D('',#595,#494,#495);
#396=AXIS2_PLACEMENT_3D('',#597,#497,#498);
#397=DIRECTION('axis',(0.,0.,1.));
#398=DIRECTION('refdir',(1.,0.,0.));
#399=DIRECTION('center_axis',(0.,0.,1.));
#400=DIRECTION('ref_axis',(0.176884209696175,0.984231668033578,0.));
#401=DIRECTION('center_axis',(0.,0.,-1.));
#402=DIRECTION('ref_axis',(0.176884209696175,0.984231668033578,0.));
#403=DIRECTION('',(0.,0.,-1.));
#404=DIRECTION('center_axis',(0.,0.,1.));
#405=DIRECTION('ref_axis',(0.176884209696175,0.984231668033578,0.));
#406=DIRECTION('',(0.,-2.04895850412584E-16,1.));
#407=DIRECTION('center_axis',(0.,0.,1.));
#408=DIRECTION('ref_axis',(1.,0.,0.));
#409=DIRECTION('',(-1.,0.,0.));
#410=DIRECTION('center_axis',(0.,0.,1.));
#411=DIRECTION('ref_axis',(1.21430643318376E-15,1.,0.));
#412=DIRECTION('',(0.984807753012208,-0.17364817766693,0.));
#413=DIRECTION('center_axis',(0.,0.,-1.));
#414=DIRECTION('ref_axis',(-0.323848754010246,0.946108865049901,0.));
#415=DIRECTION('',(-0.9461088650499,-0.323848754010247,0.));
#416=DIRECTION('',(0.323848754010247,-0.9461088650499,0.));
#417=DIRECTION('',(-0.9461088650499,-0.323848754010247,0.));
#418=DIRECTION('center_axis',(0.,0.,-1.));
#419=DIRECTION('ref_axis',(-0.323848754010246,0.946108865049901,0.));
#420=DIRECTION('',(0.984807753012208,-0.17364817766693,0.));
#421=DIRECTION('center_axis',(0.,0.,1.));
#422=DIRECTION('ref_axis',(1.21430643318376E-15,1.,0.));
#423=DIRECTION('',(-1.,0.,0.));
#424=DIRECTION('center_axis',(0.,0.,1.));
#425=DIRECTION('ref_axis',(0.178758366304566,0.983893005603822,0.));
#426=DIRECTION('center_axis',(0.,0.,-1.));
#427=DIRECTION('ref_axis',(0.373119358074223,0.92778335005015,0.));
#428=DIRECTION('',(-0.373119358074223,0.92778335005015,0.));
#429=DIRECTION('center_axis',(0.,0.,-1.));
#430=DIRECTION('ref_axis',(0.373119358074223,0.92778335005015,0.));
#431=DIRECTION('center_axis',(0.,1.,2.04895850412584E-16));
#432=DIRECTION('ref_axis',(0.,-2.04895850412584E-16,1.));
#433=DIRECTION('',(-1.,0.,0.));
#434=DIRECTION('',(1.23259516440783E-32,-2.04895850412584E-16,1.));
#435=DIRECTION('center_axis',(0.,0.,-1.));
#436=DIRECTION('ref_axis',(0.178758366304566,0.983893005603822,0.));
#437=DIRECTION('',(0.,2.22044604925031E-16,-1.));
#438=DIRECTION('center_axis',(0.,0.,-1.));
#439=DIRECTION('ref_axis',(0.178758366304566,0.983893005603822,0.));
#440=DIRECTION('',(0.,0.,1.));
#441=DIRECTION('center_axis',(0.,-1.,-2.22044604925031E-16));
#442=DIRECTION('ref_axis',(0.,2.22044604925031E-16,-1.));
#443=DIRECTION('',(0.,2.22044604925031E-16,-1.));
#444=DIRECTION('',(-1.,0.,0.));
#445=DIRECTION('center_axis',(-0.323848754010247,0.9461088650499,2.04895850412584E-16));
#446=DIRECTION('ref_axis',(0.,-2.16566885674174E-16,1.));
#447=DIRECTION('',(6.63552658579853E-17,-1.93853780487284E-16,1.));
#448=DIRECTION('',(6.63552658579853E-17,-1.93853780487284E-16,1.));
#449=DIRECTION('',(-0.9461088650499,-0.323848754010247,0.));
#450=DIRECTION('center_axis',(0.323848754010247,-0.9461088650499,-2.22044604925031E-16));
#451=DIRECTION('ref_axis',(0.,2.34692447272778E-16,-1.));
#452=DIRECTION('',(-7.19088686396689E-17,2.10078369156075E-16,-1.));
#453=DIRECTION('',(-0.9461088650499,-0.323848754010247,0.));
#454=DIRECTION('',(-7.19088686396689E-17,2.10078369156075E-16,-1.));
#455=DIRECTION('center_axis',(0.,0.,-1.));
#456=DIRECTION('ref_axis',(-0.323848754010246,0.946108865049901,0.));
#457=DIRECTION('',(3.55797910356609E-17,2.01783022046343E-16,1.));
#458=DIRECTION('center_axis',(0.,0.,-1.));
#459=DIRECTION('ref_axis',(-0.323848754010246,0.946108865049901,0.));
#460=DIRECTION('center_axis',(0.,0.,-1.));
#461=DIRECTION('ref_axis',(-0.323848754010246,0.946108865049901,0.));
#462=DIRECTION('center_axis',(0.,0.,-1.));
#463=DIRECTION('ref_axis',(-0.323848754010246,0.946108865049901,0.));
#464=DIRECTION('',(-3.85576410060049E-17,-2.18671248444704E-16,-1.));
#465=DIRECTION('center_axis',(0.17364817766693,0.984807753012208,-2.22044604925031E-16));
#466=DIRECTION('ref_axis',(0.,2.25470000866533E-16,1.));
#467=DIRECTION('',(0.984807753012208,-0.17364817766693,0.));
#468=DIRECTION('',(-3.85576410060049E-17,-2.18671248444704E-16,-1.));
#469=DIRECTION('center_axis',(-0.17364817766693,-0.984807753012208,2.04895850412584E-16));
#470=DIRECTION('ref_axis',(0.,-2.08056699173899E-16,-1.));
#471=DIRECTION('',(3.55797910356609E-17,2.01783022046343E-16,1.));
#472=DIRECTION('',(0.984807753012208,-0.17364817766693,0.));
#473=DIRECTION('center_axis',(0.,0.,1.));
#474=DIRECTION('ref_axis',(1.21430643318376E-15,1.,0.));
#475=DIRECTION('center_axis',(0.,0.,1.));
#476=DIRECTION('ref_axis',(1.21430643318376E-15,1.,0.));
#477=DIRECTION('center_axis',(0.,0.,1.));
#478=DIRECTION('ref_axis',(1.21430643318376E-15,1.,0.));
#479=DIRECTION('center_axis',(0.,0.,1.));
#480=DIRECTION('ref_axis',(1.21430643318376E-15,1.,0.));
#481=DIRECTION('center_axis',(0.9461088650499,0.323848754010247,0.));
#482=DIRECTION('ref_axis',(0.,0.,-1.));
#483=DIRECTION('',(-0.323848754010247,0.9461088650499,6.93889390390722E-16));
#484=DIRECTION('center_axis',(0.,0.,-1.));
#485=DIRECTION('ref_axis',(0.373119358074223,0.92778335005015,0.));
#486=DIRECTION('',(-7.64506081780154E-17,1.90098958507162E-16,-1.));
#487=DIRECTION('center_axis',(0.,0.,-1.));
#488=DIRECTION('ref_axis',(0.373119358074223,0.92778335005015,0.));
#489=DIRECTION('center_axis',(0.,0.,-1.));
#490=DIRECTION('ref_axis',(0.373119358074223,0.92778335005015,0.));
#491=DIRECTION('center_axis',(0.,0.,-1.));
#492=DIRECTION('ref_axis',(0.373119358074223,0.92778335005015,0.));
#493=DIRECTION('',(8.28491404534721E-17,-2.06009287417908E-16,1.));
#494=DIRECTION('center_axis',(0.,0.,-1.));
#495=DIRECTION('ref_axis',(-1.,0.,0.));
#496=DIRECTION('',(0.373119358074223,-0.92778335005015,-6.93889390390722E-16));
#497=DIRECTION('center_axis',(0.92778335005015,0.373119358074224,-6.73378834823623E-17));
#498=DIRECTION('ref_axis',(-7.25793187372057E-17,0.,-1.));
#499=CARTESIAN_POINT('',(0.,0.,0.));
#500=CARTESIAN_POINT('Origin',(2.80718717531397,-2.19999999999997,2.5));
#501=CARTESIAN_POINT('',(2.80718717531397,4.20000000000003,5.));
#502=CARTESIAN_POINT('',(5.03560369701723,3.79951329741007,5.));
#503=CARTESIAN_POINT('Origin',(2.80718717531397,-2.19999999999997,5.));
#504=CARTESIAN_POINT('',(5.03560369701723,3.79951329741007,0.));
#505=CARTESIAN_POINT('',(5.03560369701723,3.79951329741007,2.5));
#506=CARTESIAN_POINT('',(2.80718717531397,4.20000000000003,0.));
#507=CARTESIAN_POINT('Origin',(2.80718717531397,-2.19999999999997,0.));
#508=CARTESIAN_POINT('',(2.80718717531397,4.20000000000003,2.5));
#509=CARTESIAN_POINT('Origin',(35.0746238716148,4.01444332998997,5.));
#510=CARTESIAN_POINT('',(0.799999999999999,4.20000000000003,5.));
#511=CARTESIAN_POINT('',(4.,4.20000000000003,5.));
#512=CARTESIAN_POINT('',(0.661081457866451,2.6121537975902,5.));
#513=CARTESIAN_POINT('Origin',(0.799999999999999,3.4,5.));
#514=CARTESIAN_POINT('',(5.58512022292749,1.74391290925555,5.));
#515=CARTESIAN_POINT('',(0.661081457866451,2.6121537975902,5.));
#516=CARTESIAN_POINT('',(5.64520045346481,0.971546262030766,5.));
#517=CARTESIAN_POINT('Origin',(5.51566095186072,1.3499898080507,5.));
#518=CARTESIAN_POINT('',(2.80687385831511,2.56739074444567E-14,5.));
#519=CARTESIAN_POINT('',(5.64520045346481,0.971546262030766,5.));
#520=CARTESIAN_POINT('',(2.93641335991921,-0.378443546019935,5.));
#521=CARTESIAN_POINT('',(2.93641335991921,-0.378443546019936,5.));
#522=CARTESIAN_POINT('',(5.77473995506891,0.593102716010805,5.));
#523=CARTESIAN_POINT('',(5.77473995506891,0.593102716010805,5.));
#524=CARTESIAN_POINT('',(5.65457949399427,2.13783601046044,5.));
#525=CARTESIAN_POINT('Origin',(5.51566095186072,1.3499898080507,5.));
#526=CARTESIAN_POINT('',(0.730540728933222,3.00607689879509,5.));
#527=CARTESIAN_POINT('',(0.730540728933222,3.00607689879509,5.));
#528=CARTESIAN_POINT('',(0.8,3.80000000000003,5.));
#529=CARTESIAN_POINT('Origin',(0.799999999999999,3.4,5.));
#530=CARTESIAN_POINT('',(2.98788323684686,3.80000000000003,5.));
#531=CARTESIAN_POINT('',(4.,3.80000000000003,5.));
#532=CARTESIAN_POINT('',(4.74667429984915,3.48045446476125,5.));
#533=CARTESIAN_POINT('Origin',(2.98788323684686,-1.19999999999997,5.));
#534=CARTESIAN_POINT('',(35.1492477432297,3.82888665997994,5.));
#535=CARTESIAN_POINT('Origin',(19.5,42.7416666666667,5.));
#536=CARTESIAN_POINT('',(35.,4.2,5.));
#537=CARTESIAN_POINT('',(35.1492477432297,3.82888665997994,5.));
#538=CARTESIAN_POINT('Origin',(19.5,42.7416666666667,5.));
#539=CARTESIAN_POINT('Origin',(4.,4.20000000000003,0.));
#540=CARTESIAN_POINT('',(0.799999999999998,4.20000000000003,0.));
#541=CARTESIAN_POINT('',(4.,4.20000000000003,0.));
#542=CARTESIAN_POINT('',(0.799999999999999,4.20000000000003,5.));
#543=CARTESIAN_POINT('Origin',(2.98788323684686,-1.19999999999997,2.5));
#544=CARTESIAN_POINT('',(2.98788323684686,3.80000000000003,-2.77555756156289E-16));
#545=CARTESIAN_POINT('',(2.98788323684686,3.80000000000003,2.5));
#546=CARTESIAN_POINT('',(4.74667429984915,3.48045446476125,-1.38777878078145E-16));
#547=CARTESIAN_POINT('Origin',(2.98788323684686,-1.19999999999997,0.));
#548=CARTESIAN_POINT('',(4.74667429984915,3.48045446476125,2.5));
#549=CARTESIAN_POINT('Origin',(4.,3.80000000000003,5.));
#550=CARTESIAN_POINT('',(0.799999999999999,3.80000000000003,-2.77555756156289E-16));
#551=CARTESIAN_POINT('',(0.799999999999999,3.80000000000003,-2.77555756156289E-16));
#552=CARTESIAN_POINT('',(4.,3.80000000000003,-2.77555756156289E-16));
#553=CARTESIAN_POINT('Origin',(5.64520045346481,0.971546262030767,0.));
#554=CARTESIAN_POINT('',(2.80687385831511,2.65065747129256E-14,0.));
#555=CARTESIAN_POINT('',(2.80687385831511,2.52575738102223E-14,5.));
#556=CARTESIAN_POINT('',(5.64520045346481,0.971546262030767,0.));
#557=CARTESIAN_POINT('',(5.64520045346481,0.971546262030766,5.));
#558=CARTESIAN_POINT('',(5.64520045346481,0.971546262030767,0.));
#559=CARTESIAN_POINT('Origin',(5.77473995506891,0.593102716010805,5.));
#560=CARTESIAN_POINT('',(2.93641335991921,-0.378443546019935,-2.77555756156289E-16));
#561=CARTESIAN_POINT('',(2.93641335991921,-0.378443546019936,-2.77555756156289E-16));
#562=CARTESIAN_POINT('',(5.77473995506891,0.593102716010805,-2.77555756156289E-16));
#563=CARTESIAN_POINT('',(5.77473995506891,0.593102716010805,-2.77555756156289E-16));
#564=CARTESIAN_POINT('',(5.77473995506891,0.593102716010805,-2.77555756156289E-16));
#565=CARTESIAN_POINT('Origin',(5.51566095186072,1.3499898080507,2.5));
#566=CARTESIAN_POINT('',(5.58512022292749,1.74391290925555,0.));
#567=CARTESIAN_POINT('',(5.58512022292749,1.74391290925556,5.));
#568=CARTESIAN_POINT('Origin',(5.51566095186072,1.3499898080507,0.));
#569=CARTESIAN_POINT('Origin',(5.51566095186072,1.3499898080507,2.5));
#570=CARTESIAN_POINT('',(5.65457949399426,2.13783601046044,-2.77555756156289E-16));
#571=CARTESIAN_POINT('Origin',(5.51566095186072,1.3499898080507,-2.77555756156289E-16));
#572=CARTESIAN_POINT('',(5.65457949399427,2.13783601046044,-2.77555756156289E-16));
#573=CARTESIAN_POINT('Origin',(0.730540728933222,3.00607689879509,5.));
#574=CARTESIAN_POINT('',(0.730540728933223,3.00607689879509,-2.77555756156289E-16));
#575=CARTESIAN_POINT('',(0.730540728933223,3.00607689879509,-2.77555756156289E-16));
#576=CARTESIAN_POINT('',(0.730540728933223,3.00607689879509,-2.77555756156289E-16));
#577=CARTESIAN_POINT('Origin',(0.661081457866451,2.6121537975902,0.));
#578=CARTESIAN_POINT('',(0.661081457866451,2.6121537975902,0.));
#579=CARTESIAN_POINT('',(0.661081457866451,2.61215379759021,5.));
#580=CARTESIAN_POINT('',(0.661081457866451,2.6121537975902,0.));
#581=CARTESIAN_POINT('Origin',(0.799999999999999,3.4,2.5));
#582=CARTESIAN_POINT('Origin',(0.799999999999999,3.4,-2.77555756156289E-16));
#583=CARTESIAN_POINT('Origin',(0.799999999999999,3.4,2.5));
#584=CARTESIAN_POINT('Origin',(0.799999999999999,3.4,0.));
#585=CARTESIAN_POINT('Origin',(2.80687385831512,0.,0.));
#586=CARTESIAN_POINT('',(2.80687385831511,2.63677968348475E-14,0.));
#587=CARTESIAN_POINT('Origin',(19.5,42.7416666666667,2.5));
#588=CARTESIAN_POINT('',(35.,4.2,0.));
#589=CARTESIAN_POINT('',(35.,4.2,5.));
#590=CARTESIAN_POINT('Origin',(19.5,42.7416666666667,0.));
#591=CARTESIAN_POINT('Origin',(19.5,42.7416666666667,2.5));
#592=CARTESIAN_POINT('',(35.1492477432297,3.82888665997994,-2.77555756156289E-16));
#593=CARTESIAN_POINT('Origin',(19.5,42.7416666666667,-2.77555756156289E-16));
#594=CARTESIAN_POINT('',(35.1492477432297,3.82888665997994,-2.77555756156289E-16));
#595=CARTESIAN_POINT('Origin',(35.0746238716148,4.01444332998997,-1.38777878078145E-16));
#596=CARTESIAN_POINT('',(35.,4.2,0.));
#597=CARTESIAN_POINT('Origin',(35.0746238716148,4.01444332998997,2.5));
#598=UNCERTAINTY_MEASURE_WITH_UNIT(LENGTH_MEASURE(0.01),#602,
'DISTANCE_ACCURACY_VALUE',
'Maximum model space distance between geometric entities at asserted c
onnectivities');
#599=UNCERTAINTY_MEASURE_WITH_UNIT(LENGTH_MEASURE(0.01),#602,
'DISTANCE_ACCURACY_VALUE',
'Maximum model space distance between geometric entities at asserted c
onnectivities');
#600=(
GEOMETRIC_REPRESENTATION_CONTEXT(3)
GLOBAL_UNCERTAINTY_ASSIGNED_CONTEXT((#598))
GLOBAL_UNIT_ASSIGNED_CONTEXT((#602,#604,#605))
REPRESENTATION_CONTEXT('','3D')
);
#601=(
GEOMETRIC_REPRESENTATION_CONTEXT(3)
GLOBAL_UNCERTAINTY_ASSIGNED_CONTEXT((#599))
GLOBAL_UNIT_ASSIGNED_CONTEXT((#602,#604,#605))
REPRESENTATION_CONTEXT('','3D')
);
#602=(
LENGTH_UNIT()
NAMED_UNIT(*)
SI_UNIT(.MILLI.,.METRE.)
);
#603=(
LENGTH_UNIT()
NAMED_UNIT(*)
SI_UNIT(.CENTI.,.METRE.)
);
#604=(
NAMED_UNIT(*)
PLANE_ANGLE_UNIT()
SI_UNIT($,.RADIAN.)
);
#605=(
NAMED_UNIT(*)
SI_UNIT($,.STERADIAN.)
SOLID_ANGLE_UNIT()
);
#606=SHAPE_DEFINITION_REPRESENTATION(#607,#608);
#607=PRODUCT_DEFINITION_SHAPE('',$,#610);
#608=SHAPE_REPRESENTATION('',(#362),#600);
#609=PRODUCT_DEFINITION_CONTEXT('part definition',#614,'design');
#610=PRODUCT_DEFINITION('19892','19892',#611,#609);
#611=PRODUCT_DEFINITION_FORMATION('',$,#616);
#612=PRODUCT_RELATED_PRODUCT_CATEGORY('19892','19892',(#616));
#613=APPLICATION_PROTOCOL_DEFINITION('international standard',
'automotive_design',2009,#614);
#614=APPLICATION_CONTEXT(
'Core Data for Automotive Mechanical Design Process');
#615=PRODUCT_CONTEXT('part definition',#614,'mechanical');
#616=PRODUCT('19892','19892',$,(#615));
#617=PRESENTATION_STYLE_ASSIGNMENT((#618));
#618=SURFACE_STYLE_USAGE(.BOTH.,#621);
#619=SURFACE_STYLE_RENDERING_WITH_PROPERTIES($,#625,(#620));
#620=SURFACE_STYLE_TRANSPARENT(0.);
#621=SURFACE_SIDE_STYLE('',(#622,#619));
#622=SURFACE_STYLE_FILL_AREA(#623);
#623=FILL_AREA_STYLE('',(#624));
#624=FILL_AREA_STYLE_COLOUR('',#625);
#625=COLOUR_RGB('',1.,1.,1.);
ENDSEC;
END-ISO-10303-21;
