ISO-10303-21;
HEADER;
/****************************************************************
 * Generated by software with PDElib inside                    *
 * PDElib Version v51a, created Wed 11/30/2011                  *
 * ITI Transcendata (http://www.transcendata.com/)              *
 ****************************************************************/
FILE_DESCRIPTION((''),'2;1');
FILE_NAME('R:\\BE\\Inventor\\PRODUITS\\STP\\86 S.stp','2013-01-14T13:46:31',('DOMINIQUE'),(''),'Autodesk Inventor 2013','Autodesk Inventor 2013','');
FILE_SCHEMA(('AUTOMOTIVE_DESIGN { 1 0 10303 214 1 1 1 1 }'));
ENDSEC;
DATA;
#5=APPLICATION_CONTEXT('automotive design');
#6=APPLICATION_PROTOCOL_DEFINITION('International Standard','automotive_design',2001,#5);
#7=PRODUCT_CONTEXT('',#5,'mechanical');
#8=PRODUCT('86 S','86 S',$,(#7));
#9=PRODUCT_RELATED_PRODUCT_CATEGORY('part',$,(#8));
#10=PRODUCT_DEFINITION_FORMATION('',$,#8);
#11=PRODUCT_DEFINITION_CONTEXT('part definition',#5,'design');
#12=PRODUCT_DEFINITION('',$,#10,#11);
#18=(NAMED_UNIT(*)PLANE_ANGLE_UNIT()SI_UNIT($,.RADIAN.));
#19=DIMENSIONAL_EXPONENTS(0.0,0.0,0.0,0.0,0.0,0.0,0.0);
#20=PLANE_ANGLE_MEASURE_WITH_UNIT(PLANE_ANGLE_MEASURE(0.0174532925),#18);
#24=(CONVERSION_BASED_UNIT('DEGREE',#20)NAMED_UNIT(#19)PLANE_ANGLE_UNIT());
#28=(NAMED_UNIT(*)SI_UNIT($,.STERADIAN.)SOLID_ANGLE_UNIT());
#32=(LENGTH_UNIT()NAMED_UNIT(*)SI_UNIT(.MILLI.,.METRE.));
#34=UNCERTAINTY_MEASURE_WITH_UNIT(LENGTH_MEASURE(0.01),#32,'DISTANCE_ACCURACY_VALUE','');
#36=(GEOMETRIC_REPRESENTATION_CONTEXT(3)GLOBAL_UNCERTAINTY_ASSIGNED_CONTEXT((#34))GLOBAL_UNIT_ASSIGNED_CONTEXT((#24,#28,#32))REPRESENTATION_CONTEXT('None','None'));
#37=AXIS2_PLACEMENT_3D('',#38,#39,#40);
#38=CARTESIAN_POINT('',(0.0,0.0,0.0));
#39=DIRECTION('',(0.0,0.0,1.0));
#40=DIRECTION('',(1.0,0.0,0.0));
#41=SHAPE_REPRESENTATION('',(#37),#36);
#42=PRODUCT_DEFINITION_SHAPE('','',#12);
#43=SHAPE_DEFINITION_REPRESENTATION(#42,#41);
#49=(NAMED_UNIT(*)PLANE_ANGLE_UNIT()SI_UNIT($,.RADIAN.));
#50=DIMENSIONAL_EXPONENTS(0.0,0.0,0.0,0.0,0.0,0.0,0.0);
#51=PLANE_ANGLE_MEASURE_WITH_UNIT(PLANE_ANGLE_MEASURE(0.0174532925),#49);
#55=(CONVERSION_BASED_UNIT('DEGREE',#51)NAMED_UNIT(#50)PLANE_ANGLE_UNIT());
#59=(NAMED_UNIT(*)SI_UNIT($,.STERADIAN.)SOLID_ANGLE_UNIT());
#63=(LENGTH_UNIT()NAMED_UNIT(*)SI_UNIT(.MILLI.,.METRE.));
#65=UNCERTAINTY_MEASURE_WITH_UNIT(LENGTH_MEASURE(0.000001),#63,'DISTANCE_ACCURACY_VALUE','');
#67=(GEOMETRIC_REPRESENTATION_CONTEXT(3)GLOBAL_UNCERTAINTY_ASSIGNED_CONTEXT((#65))GLOBAL_UNIT_ASSIGNED_CONTEXT((#55,#59,#63))REPRESENTATION_CONTEXT('','3D'));
#68=CARTESIAN_POINT('',(158.95140726128807,28.829923289096378,-390.70212316301485));
#69=DIRECTION('',(0.0,0.0,1.0));
#70=DIRECTION('',(1.0,0.0,0.0));
#71=AXIS2_PLACEMENT_3D('',#68,#69,#70);
#72=CYLINDRICAL_SURFACE('',#71,8.647);
#73=CARTESIAN_POINT('',(150.30440726128805,28.829923289096378,0.0));
#74=VERTEX_POINT('',#73);
#75=CARTESIAN_POINT('',(158.95140726128807,28.829923289096378,0.0));
#76=DIRECTION('',(0.0,0.0,1.0));
#77=DIRECTION('',(1.0,0.0,0.0));
#78=AXIS2_PLACEMENT_3D('',#75,#76,#77);
#79=CIRCLE('',#78,8.647);
#80=EDGE_CURVE('',#74,#74,#79,.T.);
#81=ORIENTED_EDGE('',*,*,#80,.F.);
#82=EDGE_LOOP('',(#81));
#83=FACE_OUTER_BOUND('',#82,.T.);
#84=CARTESIAN_POINT('',(167.59840726128806,28.829923289096378,12.000000000000002));
#85=VERTEX_POINT('',#84);
#86=CARTESIAN_POINT('',(158.95140726128807,28.829923289096378,12.000000000000028));
#87=DIRECTION('',(0.0,0.0,-1.0));
#88=DIRECTION('',(1.0,0.0,0.0));
#89=AXIS2_PLACEMENT_3D('',#86,#87,#88);
#90=CIRCLE('',#89,8.647);
#91=EDGE_CURVE('',#85,#85,#90,.T.);
#92=ORIENTED_EDGE('',*,*,#91,.F.);
#93=EDGE_LOOP('',(#92));
#94=FACE_BOUND('',#93,.T.);
#95=ADVANCED_FACE('',(#83,#94),#72,.F.);
#96=CARTESIAN_POINT('',(198.95140726128807,28.829923289096403,-390.70212316301485));
#97=DIRECTION('',(0.0,0.0,1.0));
#98=DIRECTION('',(1.0,0.0,0.0));
#99=AXIS2_PLACEMENT_3D('',#96,#97,#98);
#100=CYLINDRICAL_SURFACE('',#99,6.000000000000001);
#101=CARTESIAN_POINT('',(192.95140726128807,28.829923289096403,0.0));
#102=VERTEX_POINT('',#101);
#103=CARTESIAN_POINT('',(198.95140726128807,28.829923289096403,0.0));
#104=DIRECTION('',(0.0,0.0,1.0));
#105=DIRECTION('',(1.0,0.0,0.0));
#106=AXIS2_PLACEMENT_3D('',#103,#104,#105);
#107=CIRCLE('',#106,6.000000000000001);
#108=EDGE_CURVE('',#102,#102,#107,.T.);
#109=ORIENTED_EDGE('',*,*,#108,.F.);
#110=EDGE_LOOP('',(#109));
#111=FACE_OUTER_BOUND('',#110,.T.);
#112=CARTESIAN_POINT('',(204.9514072612881,28.829923289096403,12.000000000000002));
#113=VERTEX_POINT('',#112);
#114=CARTESIAN_POINT('',(198.95140726128807,28.829923289096403,12.000000000000028));
#115=DIRECTION('',(0.0,0.0,-1.0));
#116=DIRECTION('',(1.0,0.0,0.0));
#117=AXIS2_PLACEMENT_3D('',#114,#115,#116);
#118=CIRCLE('',#117,6.000000000000001);
#119=EDGE_CURVE('',#113,#113,#118,.T.);
#120=ORIENTED_EDGE('',*,*,#119,.F.);
#121=EDGE_LOOP('',(#120));
#122=FACE_BOUND('',#121,.T.);
#123=ADVANCED_FACE('',(#111,#122),#100,.F.);
#124=CARTESIAN_POINT('',(-16.048592738711918,28.829923289096378,-390.70212316301485));
#125=DIRECTION('',(0.0,0.0,1.0));
#126=DIRECTION('',(1.0,0.0,0.0));
#127=AXIS2_PLACEMENT_3D('',#124,#125,#126);
#128=CYLINDRICAL_SURFACE('',#127,6.000000000000001);
#129=CARTESIAN_POINT('',(-22.048592738711918,28.829923289096378,0.0));
#130=VERTEX_POINT('',#129);
#131=CARTESIAN_POINT('',(-16.048592738711918,28.829923289096378,0.0));
#132=DIRECTION('',(0.0,0.0,1.0));
#133=DIRECTION('',(1.0,0.0,0.0));
#134=AXIS2_PLACEMENT_3D('',#131,#132,#133);
#135=CIRCLE('',#134,6.000000000000001);
#136=EDGE_CURVE('',#130,#130,#135,.T.);
#137=ORIENTED_EDGE('',*,*,#136,.F.);
#138=EDGE_LOOP('',(#137));
#139=FACE_OUTER_BOUND('',#138,.T.);
#140=CARTESIAN_POINT('',(-10.048592738711918,28.829923289096378,12.000000000000002));
#141=VERTEX_POINT('',#140);
#142=CARTESIAN_POINT('',(-16.048592738711918,28.829923289096378,12.000000000000028));
#143=DIRECTION('',(0.0,0.0,-1.0));
#144=DIRECTION('',(1.0,0.0,0.0));
#145=AXIS2_PLACEMENT_3D('',#142,#143,#144);
#146=CIRCLE('',#145,6.000000000000001);
#147=EDGE_CURVE('',#141,#141,#146,.T.);
#148=ORIENTED_EDGE('',*,*,#147,.F.);
#149=EDGE_LOOP('',(#148));
#150=FACE_BOUND('',#149,.T.);
#151=ADVANCED_FACE('',(#139,#150),#128,.F.);
#152=CARTESIAN_POINT('',(118.95140726128807,28.829923289096399,-390.70212316301485));
#153=DIRECTION('',(0.0,0.0,1.0));
#154=DIRECTION('',(1.0,0.0,0.0));
#155=AXIS2_PLACEMENT_3D('',#152,#153,#154);
#156=CYLINDRICAL_SURFACE('',#155,6.000000000000001);
#157=CARTESIAN_POINT('',(112.95140726128807,28.829923289096399,0.0));
#158=VERTEX_POINT('',#157);
#159=CARTESIAN_POINT('',(118.95140726128807,28.829923289096399,0.0));
#160=DIRECTION('',(0.0,0.0,1.0));
#161=DIRECTION('',(1.0,0.0,0.0));
#162=AXIS2_PLACEMENT_3D('',#159,#160,#161);
#163=CIRCLE('',#162,6.000000000000001);
#164=EDGE_CURVE('',#158,#158,#163,.T.);
#165=ORIENTED_EDGE('',*,*,#164,.F.);
#166=EDGE_LOOP('',(#165));
#167=FACE_OUTER_BOUND('',#166,.T.);
#168=CARTESIAN_POINT('',(124.95140726128807,28.829923289096399,12.000000000000002));
#169=VERTEX_POINT('',#168);
#170=CARTESIAN_POINT('',(118.95140726128807,28.829923289096399,12.000000000000028));
#171=DIRECTION('',(0.0,0.0,-1.0));
#172=DIRECTION('',(1.0,0.0,0.0));
#173=AXIS2_PLACEMENT_3D('',#170,#171,#172);
#174=CIRCLE('',#173,6.000000000000001);
#175=EDGE_CURVE('',#169,#169,#174,.T.);
#176=ORIENTED_EDGE('',*,*,#175,.F.);
#177=EDGE_LOOP('',(#176));
#178=FACE_BOUND('',#177,.T.);
#179=ADVANCED_FACE('',(#167,#178),#156,.F.);
#180=CARTESIAN_POINT('',(333.95140726128807,28.829923289096421,-390.70212316301485));
#181=DIRECTION('',(0.0,0.0,1.0));
#182=DIRECTION('',(1.0,0.0,0.0));
#183=AXIS2_PLACEMENT_3D('',#180,#181,#182);
#184=CYLINDRICAL_SURFACE('',#183,6.000000000000001);
#185=CARTESIAN_POINT('',(327.95140726128807,28.829923289096421,0.0));
#186=VERTEX_POINT('',#185);
#187=CARTESIAN_POINT('',(333.95140726128807,28.829923289096421,0.0));
#188=DIRECTION('',(0.0,0.0,1.0));
#189=DIRECTION('',(1.0,0.0,0.0));
#190=AXIS2_PLACEMENT_3D('',#187,#188,#189);
#191=CIRCLE('',#190,6.000000000000001);
#192=EDGE_CURVE('',#186,#186,#191,.T.);
#193=ORIENTED_EDGE('',*,*,#192,.F.);
#194=EDGE_LOOP('',(#193));
#195=FACE_OUTER_BOUND('',#194,.T.);
#196=CARTESIAN_POINT('',(339.95140726128807,28.829923289096421,12.000000000000002));
#197=VERTEX_POINT('',#196);
#198=CARTESIAN_POINT('',(333.95140726128807,28.829923289096421,12.000000000000028));
#199=DIRECTION('',(0.0,0.0,-1.0));
#200=DIRECTION('',(1.0,0.0,0.0));
#201=AXIS2_PLACEMENT_3D('',#198,#199,#200);
#202=CIRCLE('',#201,6.000000000000001);
#203=EDGE_CURVE('',#197,#197,#202,.T.);
#204=ORIENTED_EDGE('',*,*,#203,.F.);
#205=EDGE_LOOP('',(#204));
#206=FACE_BOUND('',#205,.T.);
#207=ADVANCED_FACE('',(#195,#206),#184,.F.);
#208=CARTESIAN_POINT('',(358.95140726128807,51.329923289096378,0.0));
#209=DIRECTION('',(1.0,0.0,0.0));
#210=DIRECTION('',(0.0,0.0,-1.0));
#211=AXIS2_PLACEMENT_3D('',#208,#209,#210);
#212=PLANE('',#211);
#213=CARTESIAN_POINT('',(358.95140726128807,51.329923289096378,12.000000000000002));
#214=VERTEX_POINT('',#213);
#215=CARTESIAN_POINT('',(358.95140726128807,6.329923289096426,12.000000000000002));
#216=VERTEX_POINT('',#215);
#217=CARTESIAN_POINT('',(358.95140726128807,51.329923289096378,12.000000000000002));
#218=DIRECTION('',(0.0,-1.0,0.0));
#219=VECTOR('',#218,44.999999999999957);
#220=LINE('',#217,#219);
#221=EDGE_CURVE('',#214,#216,#220,.T.);
#222=ORIENTED_EDGE('',*,*,#221,.T.);
#223=CARTESIAN_POINT('',(358.95140726128807,6.329923289096426,0.0));
#224=VERTEX_POINT('',#223);
#225=CARTESIAN_POINT('',(358.95140726128807,6.329923289096426,0.0));
#226=DIRECTION('',(0.0,0.0,1.0));
#227=VECTOR('',#226,12.000000000000002);
#228=LINE('',#225,#227);
#229=EDGE_CURVE('',#224,#216,#228,.T.);
#230=ORIENTED_EDGE('',*,*,#229,.F.);
#231=CARTESIAN_POINT('',(358.95140726128807,51.329923289096378,0.0));
#232=VERTEX_POINT('',#231);
#233=CARTESIAN_POINT('',(358.95140726128807,51.329923289096378,0.0));
#234=DIRECTION('',(0.0,-1.0,0.0));
#235=VECTOR('',#234,44.999999999999957);
#236=LINE('',#233,#235);
#237=EDGE_CURVE('',#232,#224,#236,.T.);
#238=ORIENTED_EDGE('',*,*,#237,.F.);
#239=CARTESIAN_POINT('',(358.95140726128807,51.329923289096378,0.0));
#240=DIRECTION('',(0.0,0.0,1.0));
#241=VECTOR('',#240,12.000000000000002);
#242=LINE('',#239,#241);
#243=EDGE_CURVE('',#232,#214,#242,.T.);
#244=ORIENTED_EDGE('',*,*,#243,.T.);
#245=EDGE_LOOP('',(#222,#230,#238,#244));
#246=FACE_OUTER_BOUND('',#245,.T.);
#247=ADVANCED_FACE('',(#246),#212,.T.);
#248=CARTESIAN_POINT('',(358.95140726128807,6.329923289096426,0.0));
#249=DIRECTION('',(0.0,-1.0,0.0));
#250=DIRECTION('',(0.0,0.0,-1.0));
#251=AXIS2_PLACEMENT_3D('',#248,#249,#250);
#252=PLANE('',#251);
#253=CARTESIAN_POINT('',(-41.048592738711932,6.329923289096378,12.000000000000002));
#254=VERTEX_POINT('',#253);
#255=CARTESIAN_POINT('',(358.95140726128807,6.329923289096426,12.000000000000002));
#256=DIRECTION('',(-1.0,0.0,0.0));
#257=VECTOR('',#256,400.0);
#258=LINE('',#255,#257);
#259=EDGE_CURVE('',#216,#254,#258,.T.);
#260=ORIENTED_EDGE('',*,*,#259,.T.);
#261=CARTESIAN_POINT('',(-41.048592738711932,6.329923289096378,0.0));
#262=VERTEX_POINT('',#261);
#263=CARTESIAN_POINT('',(-41.048592738711932,6.329923289096378,0.0));
#264=DIRECTION('',(0.0,0.0,1.0));
#265=VECTOR('',#264,12.000000000000002);
#266=LINE('',#263,#265);
#267=EDGE_CURVE('',#262,#254,#266,.T.);
#268=ORIENTED_EDGE('',*,*,#267,.F.);
#269=CARTESIAN_POINT('',(358.95140726128807,6.329923289096426,0.0));
#270=DIRECTION('',(-1.0,0.0,0.0));
#271=VECTOR('',#270,400.0);
#272=LINE('',#269,#271);
#273=EDGE_CURVE('',#224,#262,#272,.T.);
#274=ORIENTED_EDGE('',*,*,#273,.F.);
#275=ORIENTED_EDGE('',*,*,#229,.T.);
#276=EDGE_LOOP('',(#260,#268,#274,#275));
#277=FACE_OUTER_BOUND('',#276,.T.);
#278=ADVANCED_FACE('',(#277),#252,.T.);
#279=CARTESIAN_POINT('',(-41.048592738711932,6.329923289096378,0.0));
#280=DIRECTION('',(-1.0,0.0,0.0));
#281=DIRECTION('',(0.0,0.0,1.0));
#282=AXIS2_PLACEMENT_3D('',#279,#280,#281);
#283=PLANE('',#282);
#284=CARTESIAN_POINT('',(-41.048592738711946,51.329923289096378,12.000000000000002));
#285=VERTEX_POINT('',#284);
#286=CARTESIAN_POINT('',(-41.048592738711932,6.329923289096378,12.000000000000002));
#287=DIRECTION('',(0.0,1.0,0.0));
#288=VECTOR('',#287,45.0);
#289=LINE('',#286,#288);
#290=EDGE_CURVE('',#254,#285,#289,.T.);
#291=ORIENTED_EDGE('',*,*,#290,.T.);
#292=CARTESIAN_POINT('',(-41.048592738711946,51.329923289096378,0.0));
#293=VERTEX_POINT('',#292);
#294=CARTESIAN_POINT('',(-41.048592738711946,51.329923289096378,0.0));
#295=DIRECTION('',(0.0,0.0,1.0));
#296=VECTOR('',#295,12.000000000000002);
#297=LINE('',#294,#296);
#298=EDGE_CURVE('',#293,#285,#297,.T.);
#299=ORIENTED_EDGE('',*,*,#298,.F.);
#300=CARTESIAN_POINT('',(-41.048592738711932,6.329923289096378,0.0));
#301=DIRECTION('',(0.0,1.0,0.0));
#302=VECTOR('',#301,45.0);
#303=LINE('',#300,#302);
#304=EDGE_CURVE('',#262,#293,#303,.T.);
#305=ORIENTED_EDGE('',*,*,#304,.F.);
#306=ORIENTED_EDGE('',*,*,#267,.T.);
#307=EDGE_LOOP('',(#291,#299,#305,#306));
#308=FACE_OUTER_BOUND('',#307,.T.);
#309=ADVANCED_FACE('',(#308),#283,.T.);
#310=CARTESIAN_POINT('',(-41.048592738711946,51.329923289096378,0.0));
#311=DIRECTION('',(0.0,1.0,0.0));
#312=DIRECTION('',(0.0,0.0,1.0));
#313=AXIS2_PLACEMENT_3D('',#310,#311,#312);
#314=PLANE('',#313);
#315=CARTESIAN_POINT('',(-41.048592738711946,51.329923289096378,12.000000000000002));
#316=DIRECTION('',(1.0,0.0,0.0));
#317=VECTOR('',#316,400.0);
#318=LINE('',#315,#317);
#319=EDGE_CURVE('',#285,#214,#318,.T.);
#320=ORIENTED_EDGE('',*,*,#319,.T.);
#321=ORIENTED_EDGE('',*,*,#243,.F.);
#322=CARTESIAN_POINT('',(-41.048592738711946,51.329923289096378,0.0));
#323=DIRECTION('',(1.0,0.0,0.0));
#324=VECTOR('',#323,400.0);
#325=LINE('',#322,#324);
#326=EDGE_CURVE('',#293,#232,#325,.T.);
#327=ORIENTED_EDGE('',*,*,#326,.F.);
#328=ORIENTED_EDGE('',*,*,#298,.T.);
#329=EDGE_LOOP('',(#320,#321,#327,#328));
#330=FACE_OUTER_BOUND('',#329,.T.);
#331=ADVANCED_FACE('',(#330),#314,.T.);
#332=CARTESIAN_POINT('',(158.95140726128801,28.829923289096392,12.000000000000002));
#333=DIRECTION('',(0.0,0.0,1.0));
#334=DIRECTION('',(1.0,0.0,0.0));
#335=AXIS2_PLACEMENT_3D('',#332,#333,#334);
#336=PLANE('',#335);
#337=ORIENTED_EDGE('',*,*,#221,.F.);
#338=ORIENTED_EDGE('',*,*,#319,.F.);
#339=ORIENTED_EDGE('',*,*,#290,.F.);
#340=ORIENTED_EDGE('',*,*,#259,.F.);
#341=EDGE_LOOP('',(#337,#338,#339,#340));
#342=FACE_OUTER_BOUND('',#341,.T.);
#343=ORIENTED_EDGE('',*,*,#91,.T.);
#344=EDGE_LOOP('',(#343));
#345=FACE_BOUND('',#344,.T.);
#346=ORIENTED_EDGE('',*,*,#119,.T.);
#347=EDGE_LOOP('',(#346));
#348=FACE_BOUND('',#347,.T.);
#349=ORIENTED_EDGE('',*,*,#147,.T.);
#350=EDGE_LOOP('',(#349));
#351=FACE_BOUND('',#350,.T.);
#352=ORIENTED_EDGE('',*,*,#175,.T.);
#353=EDGE_LOOP('',(#352));
#354=FACE_BOUND('',#353,.T.);
#355=ORIENTED_EDGE('',*,*,#203,.T.);
#356=EDGE_LOOP('',(#355));
#357=FACE_BOUND('',#356,.T.);
#358=ADVANCED_FACE('',(#342,#345,#348,#351,#354,#357),#336,.T.);
#359=CARTESIAN_POINT('',(158.95140726128801,28.829923289096392,0.0));
#360=DIRECTION('',(0.0,0.0,1.0));
#361=DIRECTION('',(1.0,0.0,0.0));
#362=AXIS2_PLACEMENT_3D('',#359,#360,#361);
#363=PLANE('',#362);
#364=ORIENTED_EDGE('',*,*,#326,.T.);
#365=ORIENTED_EDGE('',*,*,#237,.T.);
#366=ORIENTED_EDGE('',*,*,#273,.T.);
#367=ORIENTED_EDGE('',*,*,#304,.T.);
#368=EDGE_LOOP('',(#364,#365,#366,#367));
#369=FACE_OUTER_BOUND('',#368,.T.);
#370=ORIENTED_EDGE('',*,*,#80,.T.);
#371=EDGE_LOOP('',(#370));
#372=FACE_BOUND('',#371,.T.);
#373=ORIENTED_EDGE('',*,*,#108,.T.);
#374=EDGE_LOOP('',(#373));
#375=FACE_BOUND('',#374,.T.);
#376=ORIENTED_EDGE('',*,*,#136,.T.);
#377=EDGE_LOOP('',(#376));
#378=FACE_BOUND('',#377,.T.);
#379=ORIENTED_EDGE('',*,*,#164,.T.);
#380=EDGE_LOOP('',(#379));
#381=FACE_BOUND('',#380,.T.);
#382=ORIENTED_EDGE('',*,*,#192,.T.);
#383=EDGE_LOOP('',(#382));
#384=FACE_BOUND('',#383,.T.);
#385=ADVANCED_FACE('',(#369,#372,#375,#378,#381,#384),#363,.F.);
#386=CLOSED_SHELL('',(#95,#123,#151,#179,#207,#247,#278,#309,#331,#358,#385));
#387=MANIFOLD_SOLID_BREP('Solide1',#386);
#388=COLOUR_RGB('Par d\X2\FFFD\X0\faut',0.752941191196442,0.752941191196442,0.752941191196442);
#389=FILL_AREA_STYLE_COLOUR('Par d\X2\FFFD\X0\faut',#388);
#390=FILL_AREA_STYLE('Par d\X2\FFFD\X0\faut',(#389));
#391=SURFACE_STYLE_FILL_AREA(#390);
#392=SURFACE_SIDE_STYLE('Par d\X2\FFFD\X0\faut',(#391));
#393=SURFACE_STYLE_USAGE(.BOTH.,#392);
#394=PRESENTATION_STYLE_ASSIGNMENT((#393));
#395=STYLED_ITEM('',(#394),#387);
#396=MECHANICAL_DESIGN_GEOMETRIC_PRESENTATION_REPRESENTATION('',(#395),#36);
#397=ADVANCED_BREP_SHAPE_REPRESENTATION('ABSR',(#387),#36);
#398=SHAPE_REPRESENTATION_RELATIONSHIP('SRR','None',#397,#41);
ENDSEC;
END-ISO-10303-21;
