ISO-10303-21;
HEADER;
/****************************************************************
 * Generated by software with PDE/Lib inside                    *
 * PDElib Version v51a, created Fri 05/18/2009                  *
 * International Technegroup Inc. (www.iti-oh.com)              *
 ****************************************************************/
FILE_DESCRIPTION((''),'2;1');
FILE_NAME('R:\\BE\\Inventor\\PRODUITS\\STP\\86.stp','2010-06-01T11:31:57',('Giuliano'),(''),'Autodesk Inventor 2010','Autodesk Inventor 2010','');
FILE_SCHEMA(('AUTOMOTIVE_DESIGN { 1 0 10303 214 1 1 1 1 }'));
ENDSEC;
DATA;
#5=APPLICATION_CONTEXT('automotive design');
#6=APPLICATION_PROTOCOL_DEFINITION('International Standard','automotive_design',2001,#5);
#7=PRODUCT_CONTEXT('',#5,'mechanical');
#8=PRODUCT('86','86',$,(#7));
#9=PRODUCT_RELATED_PRODUCT_CATEGORY('part',$,(#8));
#10=PRODUCT_DEFINITION_FORMATION('',$,#8);
#11=PRODUCT_DEFINITION_CONTEXT('part definition',#5,'design');
#12=PRODUCT_DEFINITION('',$,#10,#11);
#18=(NAMED_UNIT(*)PLANE_ANGLE_UNIT()SI_UNIT($,.RADIAN.));
#19=DIMENSIONAL_EXPONENTS(0.0,0.0,0.0,0.0,0.0,0.0,0.0);
#20=PLANE_ANGLE_MEASURE_WITH_UNIT(PLANE_ANGLE_MEASURE(0.017453292500000),#18);
#24=(CONVERSION_BASED_UNIT('DEGREE',#20)NAMED_UNIT(#19)PLANE_ANGLE_UNIT());
#28=(NAMED_UNIT(*)SI_UNIT($,.STERADIAN.)SOLID_ANGLE_UNIT());
#32=(LENGTH_UNIT()NAMED_UNIT(*)SI_UNIT(.MILLI.,.METRE.));
#34=UNCERTAINTY_MEASURE_WITH_UNIT(LENGTH_MEASURE(0.010000000000000),#32,'DISTANCE_ACCURACY_VALUE','');
#36=(GEOMETRIC_REPRESENTATION_CONTEXT(3)GLOBAL_UNCERTAINTY_ASSIGNED_CONTEXT((#34))GLOBAL_UNIT_ASSIGNED_CONTEXT((#24,#28,#32))REPRESENTATION_CONTEXT('None','None'));
#37=AXIS2_PLACEMENT_3D('',#38,#39,#40);
#38=CARTESIAN_POINT('',(0.0,0.0,0.0));
#39=DIRECTION('',(0.0,0.0,1.0));
#40=DIRECTION('',(1.0,0.0,0.0));
#41=SHAPE_REPRESENTATION('',(#37),#36);
#42=PRODUCT_DEFINITION_SHAPE('','',#12);
#43=SHAPE_DEFINITION_REPRESENTATION(#42,#41);
#49=(NAMED_UNIT(*)PLANE_ANGLE_UNIT()SI_UNIT($,.RADIAN.));
#50=DIMENSIONAL_EXPONENTS(0.0,0.0,0.0,0.0,0.0,0.0,0.0);
#51=PLANE_ANGLE_MEASURE_WITH_UNIT(PLANE_ANGLE_MEASURE(0.017453292500000),#49);
#55=(CONVERSION_BASED_UNIT('DEGREE',#51)NAMED_UNIT(#50)PLANE_ANGLE_UNIT());
#59=(NAMED_UNIT(*)SI_UNIT($,.STERADIAN.)SOLID_ANGLE_UNIT());
#63=(LENGTH_UNIT()NAMED_UNIT(*)SI_UNIT(.MILLI.,.METRE.));
#65=UNCERTAINTY_MEASURE_WITH_UNIT(LENGTH_MEASURE(0.000001000000000),#63,'DISTANCE_ACCURACY_VALUE','');
#67=(GEOMETRIC_REPRESENTATION_CONTEXT(3)GLOBAL_UNCERTAINTY_ASSIGNED_CONTEXT((#65))GLOBAL_UNIT_ASSIGNED_CONTEXT((#55,#59,#63))REPRESENTATION_CONTEXT('','3D'));
#68=CARTESIAN_POINT('',(165.033719930154520,-8.143631016893952,10.0));
#69=CARTESIAN_POINT('',(165.033719930154520,-8.143631016893952,0.0));
#70=CARTESIAN_POINT('',(165.033719930154520,-15.061131016893940,10.0));
#71=CARTESIAN_POINT('',(165.033719930154520,-15.061131016893940,0.0));
#72=CARTESIAN_POINT('',(171.951219930154510,-15.061131016893942,10.0));
#73=CARTESIAN_POINT('',(171.951219930154510,-15.061131016893942,0.0));
#74=CARTESIAN_POINT('',(178.868719930154500,-15.061131016893940,10.0));
#75=CARTESIAN_POINT('',(178.868719930154500,-15.061131016893940,0.0));
#76=CARTESIAN_POINT('',(178.868719930154500,-8.143631016893952,10.0));
#77=CARTESIAN_POINT('',(178.868719930154500,-8.143631016893952,0.0));
#78=CARTESIAN_POINT('',(178.868719930154500,-1.226131016893964,10.0));
#79=CARTESIAN_POINT('',(178.868719930154500,-1.226131016893964,0.0));
#80=CARTESIAN_POINT('',(171.951219930154510,-1.226131016893962,10.0));
#81=CARTESIAN_POINT('',(171.951219930154510,-1.226131016893962,0.0));
#82=CARTESIAN_POINT('',(165.033719930154520,-1.226131016893964,10.0));
#83=CARTESIAN_POINT('',(165.033719930154520,-1.226131016893964,0.0));
#84=CARTESIAN_POINT('',(165.033719930154520,-8.143631016893952,10.0));
#85=CARTESIAN_POINT('',(165.033719930154520,-8.143631016893952,0.0));
#93=(BOUNDED_SURFACE()B_SPLINE_SURFACE(1,2,((#68,#70,#72,#74,#76,#78,#80,#82,#84),(#69,#71,#73,#75,#77,#79,#81,#83,#85)),.UNSPECIFIED.,.F.,.T.,.U.)B_SPLINE_SURFACE_WITH_KNOTS((2,2),(3,2,2,2,3),(-58.130738743427820,-56.685129780652254),(0.0,10.865983590603697,21.731967181207395,32.597950771811092,43.463934362414790),.UNSPECIFIED.)GEOMETRIC_REPRESENTATION_ITEM()RATIONAL_B_SPLINE_SURFACE(((1.0,0.707106781186548,1.0,0.707106781186548,1.0,0.707106781186548,1.0,0.707106781186548,1.0),(1.0,0.707106781186548,1.0,0.707106781186548,1.0,0.707106781186548,1.0,0.707106781186548,1.0)))REPRESENTATION_ITEM('')SURFACE());
#94=CARTESIAN_POINT('',(165.033719930154520,-8.143631016893954,0.0));
#95=VERTEX_POINT('',#94);
#96=CARTESIAN_POINT('',(171.951219930154510,-8.143631016893952,0.0));
#97=DIRECTION('',(0.0,0.0,1.0));
#98=DIRECTION('',(1.0,0.0,0.0));
#99=AXIS2_PLACEMENT_3D('',#96,#97,#98);
#100=CIRCLE('',#99,6.917500000000000);
#101=EDGE_CURVE('',#95,#95,#100,.T.);
#102=ORIENTED_EDGE('',*,*,#101,.F.);
#103=EDGE_LOOP('',(#102));
#104=FACE_OUTER_BOUND('',#103,.T.);
#105=CARTESIAN_POINT('',(178.868719930154500,-8.143631016893952,10.0));
#106=VERTEX_POINT('',#105);
#107=CARTESIAN_POINT('',(171.951219930154510,-8.143631016893952,10.0));
#108=DIRECTION('',(0.0,0.0,-1.0));
#109=DIRECTION('',(1.0,0.0,0.0));
#110=AXIS2_PLACEMENT_3D('',#107,#108,#109);
#111=CIRCLE('',#110,6.917500000000000);
#112=EDGE_CURVE('',#106,#106,#111,.T.);
#113=ORIENTED_EDGE('',*,*,#112,.F.);
#114=EDGE_LOOP('',(#113));
#115=FACE_BOUND('',#114,.T.);
#116=ADVANCED_FACE('',(#104,#115),#93,.F.);
#117=CARTESIAN_POINT('',(205.951219930154480,-8.143631016893952,10.0));
#118=CARTESIAN_POINT('',(205.951219930154480,-8.143631016893952,0.0));
#119=CARTESIAN_POINT('',(205.951219930154450,-14.143631016893949,10.0));
#120=CARTESIAN_POINT('',(205.951219930154450,-14.143631016893949,0.0));
#121=CARTESIAN_POINT('',(211.951219930154480,-14.143631016893952,10.0));
#122=CARTESIAN_POINT('',(211.951219930154480,-14.143631016893952,0.0));
#123=CARTESIAN_POINT('',(217.951219930154480,-14.143631016893949,10.0));
#124=CARTESIAN_POINT('',(217.951219930154480,-14.143631016893949,0.0));
#125=CARTESIAN_POINT('',(217.951219930154480,-8.143631016893952,10.0));
#126=CARTESIAN_POINT('',(217.951219930154480,-8.143631016893952,0.0));
#127=CARTESIAN_POINT('',(217.951219930154480,-2.143631016893954,10.0));
#128=CARTESIAN_POINT('',(217.951219930154480,-2.143631016893954,0.0));
#129=CARTESIAN_POINT('',(211.951219930154480,-2.143631016893952,10.0));
#130=CARTESIAN_POINT('',(211.951219930154480,-2.143631016893952,0.0));
#131=CARTESIAN_POINT('',(205.951219930154450,-2.143631016893954,10.0));
#132=CARTESIAN_POINT('',(205.951219930154450,-2.143631016893954,0.0));
#133=CARTESIAN_POINT('',(205.951219930154480,-8.143631016893952,10.0));
#134=CARTESIAN_POINT('',(205.951219930154480,-8.143631016893952,0.0));
#142=(BOUNDED_SURFACE()B_SPLINE_SURFACE(1,2,((#117,#119,#121,#123,#125,#127,#129,#131,#133),(#118,#120,#122,#124,#126,#128,#130,#132,#134)),.UNSPECIFIED.,.F.,.T.,.U.)B_SPLINE_SURFACE_WITH_KNOTS((2,2),(3,2,2,2,3),(-67.019897542943653,-65.353230876276982),(0.0,9.424777960769381,18.849555921538762,28.274333882308142,37.699111843077524),.UNSPECIFIED.)GEOMETRIC_REPRESENTATION_ITEM()RATIONAL_B_SPLINE_SURFACE(((1.0,0.707106781186548,1.0,0.707106781186548,1.0,0.707106781186548,1.0,0.707106781186548,1.0),(1.0,0.707106781186548,1.0,0.707106781186548,1.0,0.707106781186548,1.0,0.707106781186548,1.0)))REPRESENTATION_ITEM('')SURFACE());
#143=CARTESIAN_POINT('',(205.951219930154480,-8.143631016893954,0.0));
#144=VERTEX_POINT('',#143);
#145=CARTESIAN_POINT('',(211.951219930154480,-8.143631016893952,0.0));
#146=DIRECTION('',(0.0,0.0,1.0));
#147=DIRECTION('',(1.0,0.0,0.0));
#148=AXIS2_PLACEMENT_3D('',#145,#146,#147);
#149=CIRCLE('',#148,6.000000000000001);
#150=EDGE_CURVE('',#144,#144,#149,.T.);
#151=ORIENTED_EDGE('',*,*,#150,.F.);
#152=EDGE_LOOP('',(#151));
#153=FACE_OUTER_BOUND('',#152,.T.);
#154=CARTESIAN_POINT('',(217.951219930154480,-8.143631016893952,10.0));
#155=VERTEX_POINT('',#154);
#156=CARTESIAN_POINT('',(211.951219930154480,-8.143631016893952,10.0));
#157=DIRECTION('',(0.0,0.0,-1.0));
#158=DIRECTION('',(1.0,0.0,0.0));
#159=AXIS2_PLACEMENT_3D('',#156,#157,#158);
#160=CIRCLE('',#159,6.000000000000001);
#161=EDGE_CURVE('',#155,#155,#160,.T.);
#162=ORIENTED_EDGE('',*,*,#161,.F.);
#163=EDGE_LOOP('',(#162));
#164=FACE_BOUND('',#163,.T.);
#165=ADVANCED_FACE('',(#153,#164),#142,.F.);
#166=CARTESIAN_POINT('',(-9.048780069845449,-8.143631016893947,10.0));
#167=CARTESIAN_POINT('',(-9.048780069845449,-8.143631016893947,0.0));
#168=CARTESIAN_POINT('',(-9.048780069845448,-14.143631016893945,10.0));
#169=CARTESIAN_POINT('',(-9.048780069845448,-14.143631016893945,0.0));
#170=CARTESIAN_POINT('',(-3.048780069845449,-14.143631016893947,10.0));
#171=CARTESIAN_POINT('',(-3.048780069845449,-14.143631016893947,0.0));
#172=CARTESIAN_POINT('',(2.951219930154549,-14.143631016893945,10.0));
#173=CARTESIAN_POINT('',(2.951219930154549,-14.143631016893945,0.0));
#174=CARTESIAN_POINT('',(2.951219930154551,-8.143631016893947,10.0));
#175=CARTESIAN_POINT('',(2.951219930154551,-8.143631016893947,0.0));
#176=CARTESIAN_POINT('',(2.951219930154549,-2.143631016893949,10.0));
#177=CARTESIAN_POINT('',(2.951219930154549,-2.143631016893949,0.0));
#178=CARTESIAN_POINT('',(-3.048780069845449,-2.143631016893947,10.0));
#179=CARTESIAN_POINT('',(-3.048780069845449,-2.143631016893947,0.0));
#180=CARTESIAN_POINT('',(-9.048780069845448,-2.143631016893949,10.0));
#181=CARTESIAN_POINT('',(-9.048780069845448,-2.143631016893949,0.0));
#182=CARTESIAN_POINT('',(-9.048780069845449,-8.143631016893947,10.0));
#183=CARTESIAN_POINT('',(-9.048780069845449,-8.143631016893947,0.0));
#191=(BOUNDED_SURFACE()B_SPLINE_SURFACE(1,2,((#166,#168,#170,#172,#174,#176,#178,#180,#182),(#167,#169,#171,#173,#175,#177,#179,#181,#183)),.UNSPECIFIED.,.F.,.T.,.U.)B_SPLINE_SURFACE_WITH_KNOTS((2,2),(3,2,2,2,3),(-67.019897542943653,-65.353230876276982),(0.0,9.424777960769381,18.849555921538762,28.274333882308142,37.699111843077524),.UNSPECIFIED.)GEOMETRIC_REPRESENTATION_ITEM()RATIONAL_B_SPLINE_SURFACE(((1.0,0.707106781186548,1.0,0.707106781186548,1.0,0.707106781186548,1.0,0.707106781186548,1.0),(1.0,0.707106781186548,1.0,0.707106781186548,1.0,0.707106781186548,1.0,0.707106781186548,1.0)))REPRESENTATION_ITEM('')SURFACE());
#192=CARTESIAN_POINT('',(-9.048780069845449,-8.143631016893947,0.0));
#193=VERTEX_POINT('',#192);
#194=CARTESIAN_POINT('',(-3.048780069845449,-8.143631016893947,0.0));
#195=DIRECTION('',(0.0,0.0,1.0));
#196=DIRECTION('',(1.0,0.0,0.0));
#197=AXIS2_PLACEMENT_3D('',#194,#195,#196);
#198=CIRCLE('',#197,6.000000000000001);
#199=EDGE_CURVE('',#193,#193,#198,.T.);
#200=ORIENTED_EDGE('',*,*,#199,.F.);
#201=EDGE_LOOP('',(#200));
#202=FACE_OUTER_BOUND('',#201,.T.);
#203=CARTESIAN_POINT('',(2.951219930154552,-8.143631016893947,10.0));
#204=VERTEX_POINT('',#203);
#205=CARTESIAN_POINT('',(-3.048780069845449,-8.143631016893947,10.0));
#206=DIRECTION('',(0.0,0.0,-1.0));
#207=DIRECTION('',(1.0,0.0,0.0));
#208=AXIS2_PLACEMENT_3D('',#205,#206,#207);
#209=CIRCLE('',#208,6.000000000000001);
#210=EDGE_CURVE('',#204,#204,#209,.T.);
#211=ORIENTED_EDGE('',*,*,#210,.F.);
#212=EDGE_LOOP('',(#211));
#213=FACE_BOUND('',#212,.T.);
#214=ADVANCED_FACE('',(#202,#213),#191,.F.);
#215=CARTESIAN_POINT('',(125.951219930154540,-8.143631016893952,10.0));
#216=CARTESIAN_POINT('',(125.951219930154540,-8.143631016893952,0.0));
#217=CARTESIAN_POINT('',(125.951219930154550,-14.143631016893949,10.0));
#218=CARTESIAN_POINT('',(125.951219930154550,-14.143631016893949,0.0));
#219=CARTESIAN_POINT('',(131.951219930154540,-14.143631016893952,10.0));
#220=CARTESIAN_POINT('',(131.951219930154540,-14.143631016893952,0.0));
#221=CARTESIAN_POINT('',(137.951219930154540,-14.143631016893949,10.0));
#222=CARTESIAN_POINT('',(137.951219930154540,-14.143631016893949,0.0));
#223=CARTESIAN_POINT('',(137.951219930154540,-8.143631016893952,10.0));
#224=CARTESIAN_POINT('',(137.951219930154540,-8.143631016893952,0.0));
#225=CARTESIAN_POINT('',(137.951219930154540,-2.143631016893954,10.0));
#226=CARTESIAN_POINT('',(137.951219930154540,-2.143631016893954,0.0));
#227=CARTESIAN_POINT('',(131.951219930154540,-2.143631016893952,10.0));
#228=CARTESIAN_POINT('',(131.951219930154540,-2.143631016893952,0.0));
#229=CARTESIAN_POINT('',(125.951219930154550,-2.143631016893954,10.0));
#230=CARTESIAN_POINT('',(125.951219930154550,-2.143631016893954,0.0));
#231=CARTESIAN_POINT('',(125.951219930154540,-8.143631016893952,10.0));
#232=CARTESIAN_POINT('',(125.951219930154540,-8.143631016893952,0.0));
#240=(BOUNDED_SURFACE()B_SPLINE_SURFACE(1,2,((#215,#217,#219,#221,#223,#225,#227,#229,#231),(#216,#218,#220,#222,#224,#226,#228,#230,#232)),.UNSPECIFIED.,.F.,.T.,.U.)B_SPLINE_SURFACE_WITH_KNOTS((2,2),(3,2,2,2,3),(-67.019897542943653,-65.353230876276982),(0.0,9.424777960769381,18.849555921538762,28.274333882308142,37.699111843077524),.UNSPECIFIED.)GEOMETRIC_REPRESENTATION_ITEM()RATIONAL_B_SPLINE_SURFACE(((1.0,0.707106781186548,1.0,0.707106781186548,1.0,0.707106781186548,1.0,0.707106781186548,1.0),(1.0,0.707106781186548,1.0,0.707106781186548,1.0,0.707106781186548,1.0,0.707106781186548,1.0)))REPRESENTATION_ITEM('')SURFACE());
#241=CARTESIAN_POINT('',(125.951219930154550,-8.143631016893954,0.0));
#242=VERTEX_POINT('',#241);
#243=CARTESIAN_POINT('',(131.951219930154540,-8.143631016893952,0.0));
#244=DIRECTION('',(0.0,0.0,1.0));
#245=DIRECTION('',(1.0,0.0,0.0));
#246=AXIS2_PLACEMENT_3D('',#243,#244,#245);
#247=CIRCLE('',#246,6.000000000000001);
#248=EDGE_CURVE('',#242,#242,#247,.T.);
#249=ORIENTED_EDGE('',*,*,#248,.F.);
#250=EDGE_LOOP('',(#249));
#251=FACE_OUTER_BOUND('',#250,.T.);
#252=CARTESIAN_POINT('',(137.951219930154540,-8.143631016893952,10.0));
#253=VERTEX_POINT('',#252);
#254=CARTESIAN_POINT('',(131.951219930154540,-8.143631016893952,10.0));
#255=DIRECTION('',(0.0,0.0,-1.0));
#256=DIRECTION('',(1.0,0.0,0.0));
#257=AXIS2_PLACEMENT_3D('',#254,#255,#256);
#258=CIRCLE('',#257,6.000000000000001);
#259=EDGE_CURVE('',#253,#253,#258,.T.);
#260=ORIENTED_EDGE('',*,*,#259,.F.);
#261=EDGE_LOOP('',(#260));
#262=FACE_BOUND('',#261,.T.);
#263=ADVANCED_FACE('',(#251,#262),#240,.F.);
#264=CARTESIAN_POINT('',(340.951219930154480,-8.143631016893952,10.0));
#265=CARTESIAN_POINT('',(340.951219930154480,-8.143631016893952,0.0));
#266=CARTESIAN_POINT('',(340.951219930154480,-14.143631016893949,10.0));
#267=CARTESIAN_POINT('',(340.951219930154480,-14.143631016893949,0.0));
#268=CARTESIAN_POINT('',(346.951219930154480,-14.143631016893952,10.0));
#269=CARTESIAN_POINT('',(346.951219930154480,-14.143631016893952,0.0));
#270=CARTESIAN_POINT('',(352.951219930154480,-14.143631016893949,10.0));
#271=CARTESIAN_POINT('',(352.951219930154480,-14.143631016893949,0.0));
#272=CARTESIAN_POINT('',(352.951219930154480,-8.143631016893952,10.0));
#273=CARTESIAN_POINT('',(352.951219930154480,-8.143631016893952,0.0));
#274=CARTESIAN_POINT('',(352.951219930154480,-2.143631016893954,10.0));
#275=CARTESIAN_POINT('',(352.951219930154480,-2.143631016893954,0.0));
#276=CARTESIAN_POINT('',(346.951219930154480,-2.143631016893952,10.0));
#277=CARTESIAN_POINT('',(346.951219930154480,-2.143631016893952,0.0));
#278=CARTESIAN_POINT('',(340.951219930154480,-2.143631016893954,10.0));
#279=CARTESIAN_POINT('',(340.951219930154480,-2.143631016893954,0.0));
#280=CARTESIAN_POINT('',(340.951219930154480,-8.143631016893952,10.0));
#281=CARTESIAN_POINT('',(340.951219930154480,-8.143631016893952,0.0));
#289=(BOUNDED_SURFACE()B_SPLINE_SURFACE(1,2,((#264,#266,#268,#270,#272,#274,#276,#278,#280),(#265,#267,#269,#271,#273,#275,#277,#279,#281)),.UNSPECIFIED.,.F.,.T.,.U.)B_SPLINE_SURFACE_WITH_KNOTS((2,2),(3,2,2,2,3),(-67.019897542943653,-65.353230876276982),(0.0,9.424777960769381,18.849555921538762,28.274333882308142,37.699111843077524),.UNSPECIFIED.)GEOMETRIC_REPRESENTATION_ITEM()RATIONAL_B_SPLINE_SURFACE(((1.0,0.707106781186548,1.0,0.707106781186548,1.0,0.707106781186548,1.0,0.707106781186548,1.0),(1.0,0.707106781186548,1.0,0.707106781186548,1.0,0.707106781186548,1.0,0.707106781186548,1.0)))REPRESENTATION_ITEM('')SURFACE());
#290=CARTESIAN_POINT('',(340.951219930154480,-8.143631016893954,0.0));
#291=VERTEX_POINT('',#290);
#292=CARTESIAN_POINT('',(346.951219930154480,-8.143631016893952,0.0));
#293=DIRECTION('',(0.0,0.0,1.0));
#294=DIRECTION('',(1.0,0.0,0.0));
#295=AXIS2_PLACEMENT_3D('',#292,#293,#294);
#296=CIRCLE('',#295,6.000000000000001);
#297=EDGE_CURVE('',#291,#291,#296,.T.);
#298=ORIENTED_EDGE('',*,*,#297,.F.);
#299=EDGE_LOOP('',(#298));
#300=FACE_OUTER_BOUND('',#299,.T.);
#301=CARTESIAN_POINT('',(352.951219930154480,-8.143631016893952,10.0));
#302=VERTEX_POINT('',#301);
#303=CARTESIAN_POINT('',(346.951219930154480,-8.143631016893952,10.0));
#304=DIRECTION('',(0.0,0.0,-1.0));
#305=DIRECTION('',(1.0,0.0,0.0));
#306=AXIS2_PLACEMENT_3D('',#303,#304,#305);
#307=CIRCLE('',#306,6.000000000000001);
#308=EDGE_CURVE('',#302,#302,#307,.T.);
#309=ORIENTED_EDGE('',*,*,#308,.F.);
#310=EDGE_LOOP('',(#309));
#311=FACE_BOUND('',#310,.T.);
#312=ADVANCED_FACE('',(#300,#311),#289,.F.);
#313=CARTESIAN_POINT('',(371.951219930154480,11.856368983106048,0.0));
#314=DIRECTION('',(1.0,0.0,0.0));
#315=DIRECTION('',(0.0,0.0,-1.0));
#316=AXIS2_PLACEMENT_3D('',#313,#314,#315);
#317=PLANE('',#316);
#318=CARTESIAN_POINT('',(371.951219930154480,11.856368983106048,10.0));
#319=VERTEX_POINT('',#318);
#320=CARTESIAN_POINT('',(371.951219930154480,-28.143631016893906,10.0));
#321=VERTEX_POINT('',#320);
#322=CARTESIAN_POINT('',(371.951219930154480,11.856368983106048,10.0));
#323=DIRECTION('',(0.0,-1.0,0.0));
#324=VECTOR('',#323,39.999999999999950);
#325=LINE('',#322,#324);
#326=EDGE_CURVE('',#319,#321,#325,.T.);
#327=ORIENTED_EDGE('',*,*,#326,.T.);
#328=CARTESIAN_POINT('',(371.951219930154480,-28.143631016893906,0.0));
#329=VERTEX_POINT('',#328);
#330=CARTESIAN_POINT('',(371.951219930154480,-28.143631016893906,0.0));
#331=DIRECTION('',(0.0,0.0,1.0));
#332=VECTOR('',#331,10.0);
#333=LINE('',#330,#332);
#334=EDGE_CURVE('',#329,#321,#333,.T.);
#335=ORIENTED_EDGE('',*,*,#334,.F.);
#336=CARTESIAN_POINT('',(371.951219930154480,11.856368983106048,0.0));
#337=VERTEX_POINT('',#336);
#338=CARTESIAN_POINT('',(371.951219930154480,11.856368983106048,0.0));
#339=DIRECTION('',(0.0,-1.0,0.0));
#340=VECTOR('',#339,39.999999999999950);
#341=LINE('',#338,#340);
#342=EDGE_CURVE('',#337,#329,#341,.T.);
#343=ORIENTED_EDGE('',*,*,#342,.F.);
#344=CARTESIAN_POINT('',(371.951219930154480,11.856368983106048,0.0));
#345=DIRECTION('',(0.0,0.0,1.0));
#346=VECTOR('',#345,10.0);
#347=LINE('',#344,#346);
#348=EDGE_CURVE('',#337,#319,#347,.T.);
#349=ORIENTED_EDGE('',*,*,#348,.T.);
#350=EDGE_LOOP('',(#327,#335,#343,#349));
#351=FACE_OUTER_BOUND('',#350,.T.);
#352=ADVANCED_FACE('',(#351),#317,.T.);
#353=CARTESIAN_POINT('',(371.951219930154480,-28.143631016893906,0.0));
#354=DIRECTION('',(0.0,-1.0,0.0));
#355=DIRECTION('',(0.0,0.0,-1.0));
#356=AXIS2_PLACEMENT_3D('',#353,#354,#355);
#357=PLANE('',#356);
#358=CARTESIAN_POINT('',(-28.048780069845481,-28.143631016893949,10.0));
#359=VERTEX_POINT('',#358);
#360=CARTESIAN_POINT('',(371.951219930154480,-28.143631016893906,10.0));
#361=DIRECTION('',(-1.0,0.0,0.0));
#362=VECTOR('',#361,399.999999999999940);
#363=LINE('',#360,#362);
#364=EDGE_CURVE('',#321,#359,#363,.T.);
#365=ORIENTED_EDGE('',*,*,#364,.T.);
#366=CARTESIAN_POINT('',(-28.048780069845481,-28.143631016893949,0.0));
#367=VERTEX_POINT('',#366);
#368=CARTESIAN_POINT('',(-28.048780069845481,-28.143631016893949,0.0));
#369=DIRECTION('',(0.0,0.0,1.0));
#370=VECTOR('',#369,10.0);
#371=LINE('',#368,#370);
#372=EDGE_CURVE('',#367,#359,#371,.T.);
#373=ORIENTED_EDGE('',*,*,#372,.F.);
#374=CARTESIAN_POINT('',(371.951219930154480,-28.143631016893906,0.0));
#375=DIRECTION('',(-1.0,0.0,0.0));
#376=VECTOR('',#375,399.999999999999940);
#377=LINE('',#374,#376);
#378=EDGE_CURVE('',#329,#367,#377,.T.);
#379=ORIENTED_EDGE('',*,*,#378,.F.);
#380=ORIENTED_EDGE('',*,*,#334,.T.);
#381=EDGE_LOOP('',(#365,#373,#379,#380));
#382=FACE_OUTER_BOUND('',#381,.T.);
#383=ADVANCED_FACE('',(#382),#357,.T.);
#384=CARTESIAN_POINT('',(-28.048780069845481,-28.143631016893949,0.0));
#385=DIRECTION('',(-1.0,0.0,0.0));
#386=DIRECTION('',(0.0,0.0,1.0));
#387=AXIS2_PLACEMENT_3D('',#384,#385,#386);
#388=PLANE('',#387);
#389=CARTESIAN_POINT('',(-28.048780069845485,11.856368983106048,10.0));
#390=VERTEX_POINT('',#389);
#391=CARTESIAN_POINT('',(-28.048780069845481,-28.143631016893949,10.0));
#392=DIRECTION('',(0.0,1.0,0.0));
#393=VECTOR('',#392,39.999999999999993);
#394=LINE('',#391,#393);
#395=EDGE_CURVE('',#359,#390,#394,.T.);
#396=ORIENTED_EDGE('',*,*,#395,.T.);
#397=CARTESIAN_POINT('',(-28.048780069845485,11.856368983106048,0.0));
#398=VERTEX_POINT('',#397);
#399=CARTESIAN_POINT('',(-28.048780069845485,11.856368983106048,0.0));
#400=DIRECTION('',(0.0,0.0,1.0));
#401=VECTOR('',#400,10.0);
#402=LINE('',#399,#401);
#403=EDGE_CURVE('',#398,#390,#402,.T.);
#404=ORIENTED_EDGE('',*,*,#403,.F.);
#405=CARTESIAN_POINT('',(-28.048780069845481,-28.143631016893949,0.0));
#406=DIRECTION('',(0.0,1.0,0.0));
#407=VECTOR('',#406,39.999999999999993);
#408=LINE('',#405,#407);
#409=EDGE_CURVE('',#367,#398,#408,.T.);
#410=ORIENTED_EDGE('',*,*,#409,.F.);
#411=ORIENTED_EDGE('',*,*,#372,.T.);
#412=EDGE_LOOP('',(#396,#404,#410,#411));
#413=FACE_OUTER_BOUND('',#412,.T.);
#414=ADVANCED_FACE('',(#413),#388,.T.);
#415=CARTESIAN_POINT('',(-28.048780069845485,11.856368983106048,0.0));
#416=DIRECTION('',(0.0,1.0,0.0));
#417=DIRECTION('',(0.0,0.0,1.0));
#418=AXIS2_PLACEMENT_3D('',#415,#416,#417);
#419=PLANE('',#418);
#420=CARTESIAN_POINT('',(-28.048780069845485,11.856368983106048,10.0));
#421=DIRECTION('',(1.0,0.0,0.0));
#422=VECTOR('',#421,400.0);
#423=LINE('',#420,#422);
#424=EDGE_CURVE('',#390,#319,#423,.T.);
#425=ORIENTED_EDGE('',*,*,#424,.T.);
#426=ORIENTED_EDGE('',*,*,#348,.F.);
#427=CARTESIAN_POINT('',(-28.048780069845485,11.856368983106048,0.0));
#428=DIRECTION('',(1.0,0.0,0.0));
#429=VECTOR('',#428,400.0);
#430=LINE('',#427,#429);
#431=EDGE_CURVE('',#398,#337,#430,.T.);
#432=ORIENTED_EDGE('',*,*,#431,.F.);
#433=ORIENTED_EDGE('',*,*,#403,.T.);
#434=EDGE_LOOP('',(#425,#426,#432,#433));
#435=FACE_OUTER_BOUND('',#434,.T.);
#436=ADVANCED_FACE('',(#435),#419,.T.);
#437=CARTESIAN_POINT('',(171.951219930154450,-8.143631016893938,10.0));
#438=DIRECTION('',(0.0,0.0,1.0));
#439=DIRECTION('',(1.0,0.0,0.0));
#440=AXIS2_PLACEMENT_3D('',#437,#438,#439);
#441=PLANE('',#440);
#442=ORIENTED_EDGE('',*,*,#326,.F.);
#443=ORIENTED_EDGE('',*,*,#424,.F.);
#444=ORIENTED_EDGE('',*,*,#395,.F.);
#445=ORIENTED_EDGE('',*,*,#364,.F.);
#446=EDGE_LOOP('',(#442,#443,#444,#445));
#447=FACE_OUTER_BOUND('',#446,.T.);
#448=ORIENTED_EDGE('',*,*,#112,.T.);
#449=EDGE_LOOP('',(#448));
#450=FACE_BOUND('',#449,.T.);
#451=ORIENTED_EDGE('',*,*,#161,.T.);
#452=EDGE_LOOP('',(#451));
#453=FACE_BOUND('',#452,.T.);
#454=ORIENTED_EDGE('',*,*,#210,.T.);
#455=EDGE_LOOP('',(#454));
#456=FACE_BOUND('',#455,.T.);
#457=ORIENTED_EDGE('',*,*,#259,.T.);
#458=EDGE_LOOP('',(#457));
#459=FACE_BOUND('',#458,.T.);
#460=ORIENTED_EDGE('',*,*,#308,.T.);
#461=EDGE_LOOP('',(#460));
#462=FACE_BOUND('',#461,.T.);
#463=ADVANCED_FACE('',(#447,#450,#453,#456,#459,#462),#441,.T.);
#464=CARTESIAN_POINT('',(171.951219930154480,-8.143631016893940,0.0));
#465=DIRECTION('',(0.0,0.0,1.0));
#466=DIRECTION('',(1.0,0.0,0.0));
#467=AXIS2_PLACEMENT_3D('',#464,#465,#466);
#468=PLANE('',#467);
#469=ORIENTED_EDGE('',*,*,#431,.T.);
#470=ORIENTED_EDGE('',*,*,#342,.T.);
#471=ORIENTED_EDGE('',*,*,#378,.T.);
#472=ORIENTED_EDGE('',*,*,#409,.T.);
#473=EDGE_LOOP('',(#469,#470,#471,#472));
#474=FACE_OUTER_BOUND('',#473,.T.);
#475=ORIENTED_EDGE('',*,*,#101,.T.);
#476=EDGE_LOOP('',(#475));
#477=FACE_BOUND('',#476,.T.);
#478=ORIENTED_EDGE('',*,*,#150,.T.);
#479=EDGE_LOOP('',(#478));
#480=FACE_BOUND('',#479,.T.);
#481=ORIENTED_EDGE('',*,*,#199,.T.);
#482=EDGE_LOOP('',(#481));
#483=FACE_BOUND('',#482,.T.);
#484=ORIENTED_EDGE('',*,*,#248,.T.);
#485=EDGE_LOOP('',(#484));
#486=FACE_BOUND('',#485,.T.);
#487=ORIENTED_EDGE('',*,*,#297,.T.);
#488=EDGE_LOOP('',(#487));
#489=FACE_BOUND('',#488,.T.);
#490=ADVANCED_FACE('',(#474,#477,#480,#483,#486,#489),#468,.F.);
#491=CLOSED_SHELL('',(#116,#165,#214,#263,#312,#352,#383,#414,#436,#463,#490));
#492=MANIFOLD_SOLID_BREP('Solide1',#491);
#493=COLOUR_RGB('Par dfaut',0.752941191196442,0.752941191196442,0.752941191196442);
#494=FILL_AREA_STYLE_COLOUR('Par dfaut',#493);
#495=FILL_AREA_STYLE('Par dfaut',(#494));
#496=SURFACE_STYLE_FILL_AREA(#495);
#497=SURFACE_SIDE_STYLE('Par dfaut',(#496));
#498=SURFACE_STYLE_USAGE(.BOTH.,#497);
#499=PRESENTATION_STYLE_ASSIGNMENT((#498));
#500=STYLED_ITEM('',(#499),#492);
#501=MECHANICAL_DESIGN_GEOMETRIC_PRESENTATION_REPRESENTATION('',(#500),#36);
#502=ADVANCED_BREP_SHAPE_REPRESENTATION('ABSR',(#492),#36);
#503=SHAPE_REPRESENTATION_RELATIONSHIP('SRR','None',#502,#41);
ENDSEC;
END-ISO-10303-21;
