ISO-10303-21;
HEADER;
/* Generated by software containing ST-Developer
 * from STEP Tools, Inc. (www.steptools.com) 
 */

FILE_DESCRIPTION(
/* description */ (''),
/* implementation_level */ '2;1');

FILE_NAME(
/* name */ 'R:\\BE\\Inventor\\PRODUITS\\STP\\0085.stp',
/* time_stamp */ '2023-05-15T16:38:54+02:00',
/* author */ ('Giuliano'),
/* organization */ (''),
/* preprocessor_version */ 'ST-DEVELOPER v18.1',
/* originating_system */ 'Autodesk Inventor 2021',
/* authorisation */ '');

FILE_SCHEMA (('AUTOMOTIVE_DESIGN { 1 0 10303 214 3 1 1 }'));
ENDSEC;

DATA;
#10=MECHANICAL_DESIGN_GEOMETRIC_PRESENTATION_REPRESENTATION('',(#13),#601);
#11=SHAPE_REPRESENTATION_RELATIONSHIP('SRR','None',#608,#12);
#12=ADVANCED_BREP_SHAPE_REPRESENTATION('',(#14),#600);
#13=STYLED_ITEM('',(#617),#14);
#14=MANIFOLD_SOLID_BREP('Solide1',#351);
#15=FACE_BOUND('',#59,.T.);
#16=FACE_BOUND('',#68,.T.);
#17=CIRCLE('',#373,8.5);
#18=CIRCLE('',#374,8.5);
#19=CIRCLE('',#377,8.5);
#20=CIRCLE('',#378,8.5);
#21=CIRCLE('',#380,6.);
#22=CIRCLE('',#381,6.);
#23=CIRCLE('',#384,6.);
#24=CIRCLE('',#385,6.);
#25=CIRCLE('',#388,6.);
#26=CIRCLE('',#389,6.);
#27=CIRCLE('',#392,6.);
#28=CIRCLE('',#394,6.);
#29=CYLINDRICAL_SURFACE('',#372,8.5);
#30=CYLINDRICAL_SURFACE('',#376,8.5);
#31=CYLINDRICAL_SURFACE('',#379,6.);
#32=CYLINDRICAL_SURFACE('',#383,6.);
#33=CYLINDRICAL_SURFACE('',#387,6.);
#34=CYLINDRICAL_SURFACE('',#393,6.);
#35=FACE_OUTER_BOUND('',#53,.T.);
#36=FACE_OUTER_BOUND('',#54,.T.);
#37=FACE_OUTER_BOUND('',#55,.T.);
#38=FACE_OUTER_BOUND('',#56,.T.);
#39=FACE_OUTER_BOUND('',#57,.T.);
#40=FACE_OUTER_BOUND('',#58,.T.);
#41=FACE_OUTER_BOUND('',#60,.T.);
#42=FACE_OUTER_BOUND('',#61,.T.);
#43=FACE_OUTER_BOUND('',#62,.T.);
#44=FACE_OUTER_BOUND('',#63,.T.);
#45=FACE_OUTER_BOUND('',#64,.T.);
#46=FACE_OUTER_BOUND('',#65,.T.);
#47=FACE_OUTER_BOUND('',#66,.T.);
#48=FACE_OUTER_BOUND('',#67,.T.);
#49=FACE_OUTER_BOUND('',#69,.T.);
#50=FACE_OUTER_BOUND('',#70,.T.);
#51=FACE_OUTER_BOUND('',#71,.T.);
#52=FACE_OUTER_BOUND('',#72,.T.);
#53=EDGE_LOOP('',(#225,#226,#227,#228));
#54=EDGE_LOOP('',(#229,#230,#231,#232));
#55=EDGE_LOOP('',(#233,#234,#235,#236));
#56=EDGE_LOOP('',(#237,#238,#239,#240));
#57=EDGE_LOOP('',(#241,#242,#243,#244));
#58=EDGE_LOOP('',(#245,#246,#247,#248));
#59=EDGE_LOOP('',(#249,#250,#251,#252));
#60=EDGE_LOOP('',(#253,#254,#255,#256));
#61=EDGE_LOOP('',(#257,#258,#259,#260));
#62=EDGE_LOOP('',(#261,#262,#263,#264));
#63=EDGE_LOOP('',(#265,#266,#267,#268));
#64=EDGE_LOOP('',(#269,#270,#271,#272,#273,#274,#275,#276,#277,#278,#279,
#280));
#65=EDGE_LOOP('',(#281,#282,#283,#284));
#66=EDGE_LOOP('',(#285,#286,#287,#288));
#67=EDGE_LOOP('',(#289,#290,#291,#292));
#68=EDGE_LOOP('',(#293,#294,#295,#296));
#69=EDGE_LOOP('',(#297,#298,#299,#300));
#70=EDGE_LOOP('',(#301,#302,#303,#304));
#71=EDGE_LOOP('',(#305,#306,#307,#308));
#72=EDGE_LOOP('',(#309,#310,#311,#312,#313,#314,#315,#316,#317,#318,#319,
#320));
#73=LINE('',#503,#109);
#74=LINE('',#505,#110);
#75=LINE('',#507,#111);
#76=LINE('',#508,#112);
#77=LINE('',#514,#113);
#78=LINE('',#517,#114);
#79=LINE('',#519,#115);
#80=LINE('',#520,#116);
#81=LINE('',#529,#117);
#82=LINE('',#532,#118);
#83=LINE('',#535,#119);
#84=LINE('',#537,#120);
#85=LINE('',#538,#121);
#86=LINE('',#543,#122);
#87=LINE('',#547,#123);
#88=LINE('',#549,#124);
#89=LINE('',#550,#125);
#90=LINE('',#556,#126);
#91=LINE('',#559,#127);
#92=LINE('',#562,#128);
#93=LINE('',#564,#129);
#94=LINE('',#565,#130);
#95=LINE('',#568,#131);
#96=LINE('',#572,#132);
#97=LINE('',#574,#133);
#98=LINE('',#575,#134);
#99=LINE('',#576,#135);
#100=LINE('',#579,#136);
#101=LINE('',#582,#137);
#102=LINE('',#585,#138);
#103=LINE('',#586,#139);
#104=LINE('',#588,#140);
#105=LINE('',#590,#141);
#106=LINE('',#593,#142);
#107=LINE('',#594,#143);
#108=LINE('',#596,#144);
#109=VECTOR('',#405,10.);
#110=VECTOR('',#406,10.);
#111=VECTOR('',#407,10.);
#112=VECTOR('',#408,10.);
#113=VECTOR('',#415,10.);
#114=VECTOR('',#418,10.);
#115=VECTOR('',#419,10.);
#116=VECTOR('',#420,10.);
#117=VECTOR('',#431,10.);
#118=VECTOR('',#434,10.);
#119=VECTOR('',#437,10.);
#120=VECTOR('',#438,10.);
#121=VECTOR('',#439,10.);
#122=VECTOR('',#444,10.);
#123=VECTOR('',#449,10.);
#124=VECTOR('',#450,10.);
#125=VECTOR('',#451,10.);
#126=VECTOR('',#456,10.);
#127=VECTOR('',#459,10.);
#128=VECTOR('',#462,10.);
#129=VECTOR('',#463,10.);
#130=VECTOR('',#464,10.);
#131=VECTOR('',#467,10.);
#132=VECTOR('',#470,10.);
#133=VECTOR('',#471,10.);
#134=VECTOR('',#472,10.);
#135=VECTOR('',#473,10.);
#136=VECTOR('',#476,10.);
#137=VECTOR('',#479,10.);
#138=VECTOR('',#482,10.);
#139=VECTOR('',#483,10.);
#140=VECTOR('',#486,10.);
#141=VECTOR('',#489,10.);
#142=VECTOR('',#492,10.);
#143=VECTOR('',#493,10.);
#144=VECTOR('',#496,10.);
#145=VERTEX_POINT('',#501);
#146=VERTEX_POINT('',#502);
#147=VERTEX_POINT('',#504);
#148=VERTEX_POINT('',#506);
#149=VERTEX_POINT('',#510);
#150=VERTEX_POINT('',#512);
#151=VERTEX_POINT('',#516);
#152=VERTEX_POINT('',#518);
#153=VERTEX_POINT('',#525);
#154=VERTEX_POINT('',#526);
#155=VERTEX_POINT('',#528);
#156=VERTEX_POINT('',#530);
#157=VERTEX_POINT('',#534);
#158=VERTEX_POINT('',#536);
#159=VERTEX_POINT('',#540);
#160=VERTEX_POINT('',#542);
#161=VERTEX_POINT('',#546);
#162=VERTEX_POINT('',#548);
#163=VERTEX_POINT('',#552);
#164=VERTEX_POINT('',#553);
#165=VERTEX_POINT('',#555);
#166=VERTEX_POINT('',#557);
#167=VERTEX_POINT('',#561);
#168=VERTEX_POINT('',#563);
#169=VERTEX_POINT('',#567);
#170=VERTEX_POINT('',#569);
#171=VERTEX_POINT('',#571);
#172=VERTEX_POINT('',#573);
#173=VERTEX_POINT('',#578);
#174=VERTEX_POINT('',#580);
#175=VERTEX_POINT('',#584);
#176=VERTEX_POINT('',#592);
#177=EDGE_CURVE('',#145,#146,#73,.T.);
#178=EDGE_CURVE('',#147,#145,#74,.T.);
#179=EDGE_CURVE('',#148,#147,#75,.T.);
#180=EDGE_CURVE('',#148,#146,#76,.T.);
#181=EDGE_CURVE('',#146,#149,#17,.T.);
#182=EDGE_CURVE('',#150,#148,#18,.T.);
#183=EDGE_CURVE('',#150,#149,#77,.T.);
#184=EDGE_CURVE('',#149,#151,#78,.T.);
#185=EDGE_CURVE('',#152,#150,#79,.T.);
#186=EDGE_CURVE('',#152,#151,#80,.T.);
#187=EDGE_CURVE('',#151,#145,#19,.T.);
#188=EDGE_CURVE('',#147,#152,#20,.T.);
#189=EDGE_CURVE('',#153,#154,#21,.T.);
#190=EDGE_CURVE('',#154,#155,#81,.T.);
#191=EDGE_CURVE('',#155,#156,#22,.T.);
#192=EDGE_CURVE('',#156,#153,#82,.T.);
#193=EDGE_CURVE('',#154,#157,#83,.T.);
#194=EDGE_CURVE('',#158,#157,#84,.T.);
#195=EDGE_CURVE('',#158,#155,#85,.T.);
#196=EDGE_CURVE('',#157,#159,#23,.T.);
#197=EDGE_CURVE('',#159,#160,#86,.T.);
#198=EDGE_CURVE('',#160,#158,#24,.T.);
#199=EDGE_CURVE('',#159,#161,#87,.T.);
#200=EDGE_CURVE('',#161,#162,#88,.T.);
#201=EDGE_CURVE('',#162,#160,#89,.T.);
#202=EDGE_CURVE('',#163,#164,#25,.T.);
#203=EDGE_CURVE('',#164,#165,#90,.T.);
#204=EDGE_CURVE('',#165,#166,#26,.T.);
#205=EDGE_CURVE('',#166,#163,#91,.T.);
#206=EDGE_CURVE('',#164,#167,#92,.T.);
#207=EDGE_CURVE('',#168,#167,#93,.T.);
#208=EDGE_CURVE('',#168,#165,#94,.T.);
#209=EDGE_CURVE('',#169,#163,#95,.T.);
#210=EDGE_CURVE('',#170,#169,#27,.T.);
#211=EDGE_CURVE('',#171,#170,#96,.T.);
#212=EDGE_CURVE('',#172,#171,#97,.T.);
#213=EDGE_CURVE('',#156,#172,#98,.T.);
#214=EDGE_CURVE('',#167,#162,#99,.T.);
#215=EDGE_CURVE('',#169,#173,#100,.T.);
#216=EDGE_CURVE('',#173,#174,#28,.T.);
#217=EDGE_CURVE('',#174,#170,#101,.T.);
#218=EDGE_CURVE('',#174,#175,#102,.T.);
#219=EDGE_CURVE('',#175,#171,#103,.T.);
#220=EDGE_CURVE('',#166,#173,#104,.T.);
#221=EDGE_CURVE('',#161,#168,#105,.T.);
#222=EDGE_CURVE('',#176,#172,#106,.T.);
#223=EDGE_CURVE('',#176,#153,#107,.T.);
#224=EDGE_CURVE('',#175,#176,#108,.T.);
#225=ORIENTED_EDGE('',*,*,#177,.F.);
#226=ORIENTED_EDGE('',*,*,#178,.F.);
#227=ORIENTED_EDGE('',*,*,#179,.F.);
#228=ORIENTED_EDGE('',*,*,#180,.T.);
#229=ORIENTED_EDGE('',*,*,#181,.F.);
#230=ORIENTED_EDGE('',*,*,#180,.F.);
#231=ORIENTED_EDGE('',*,*,#182,.F.);
#232=ORIENTED_EDGE('',*,*,#183,.T.);
#233=ORIENTED_EDGE('',*,*,#184,.F.);
#234=ORIENTED_EDGE('',*,*,#183,.F.);
#235=ORIENTED_EDGE('',*,*,#185,.F.);
#236=ORIENTED_EDGE('',*,*,#186,.T.);
#237=ORIENTED_EDGE('',*,*,#187,.F.);
#238=ORIENTED_EDGE('',*,*,#186,.F.);
#239=ORIENTED_EDGE('',*,*,#188,.F.);
#240=ORIENTED_EDGE('',*,*,#178,.T.);
#241=ORIENTED_EDGE('',*,*,#189,.T.);
#242=ORIENTED_EDGE('',*,*,#190,.T.);
#243=ORIENTED_EDGE('',*,*,#191,.T.);
#244=ORIENTED_EDGE('',*,*,#192,.T.);
#245=ORIENTED_EDGE('',*,*,#190,.F.);
#246=ORIENTED_EDGE('',*,*,#193,.T.);
#247=ORIENTED_EDGE('',*,*,#194,.F.);
#248=ORIENTED_EDGE('',*,*,#195,.T.);
#249=ORIENTED_EDGE('',*,*,#184,.T.);
#250=ORIENTED_EDGE('',*,*,#187,.T.);
#251=ORIENTED_EDGE('',*,*,#177,.T.);
#252=ORIENTED_EDGE('',*,*,#181,.T.);
#253=ORIENTED_EDGE('',*,*,#196,.T.);
#254=ORIENTED_EDGE('',*,*,#197,.T.);
#255=ORIENTED_EDGE('',*,*,#198,.T.);
#256=ORIENTED_EDGE('',*,*,#194,.T.);
#257=ORIENTED_EDGE('',*,*,#197,.F.);
#258=ORIENTED_EDGE('',*,*,#199,.T.);
#259=ORIENTED_EDGE('',*,*,#200,.T.);
#260=ORIENTED_EDGE('',*,*,#201,.T.);
#261=ORIENTED_EDGE('',*,*,#202,.T.);
#262=ORIENTED_EDGE('',*,*,#203,.T.);
#263=ORIENTED_EDGE('',*,*,#204,.T.);
#264=ORIENTED_EDGE('',*,*,#205,.T.);
#265=ORIENTED_EDGE('',*,*,#203,.F.);
#266=ORIENTED_EDGE('',*,*,#206,.T.);
#267=ORIENTED_EDGE('',*,*,#207,.F.);
#268=ORIENTED_EDGE('',*,*,#208,.T.);
#269=ORIENTED_EDGE('',*,*,#202,.F.);
#270=ORIENTED_EDGE('',*,*,#209,.F.);
#271=ORIENTED_EDGE('',*,*,#210,.F.);
#272=ORIENTED_EDGE('',*,*,#211,.F.);
#273=ORIENTED_EDGE('',*,*,#212,.F.);
#274=ORIENTED_EDGE('',*,*,#213,.F.);
#275=ORIENTED_EDGE('',*,*,#191,.F.);
#276=ORIENTED_EDGE('',*,*,#195,.F.);
#277=ORIENTED_EDGE('',*,*,#198,.F.);
#278=ORIENTED_EDGE('',*,*,#201,.F.);
#279=ORIENTED_EDGE('',*,*,#214,.F.);
#280=ORIENTED_EDGE('',*,*,#206,.F.);
#281=ORIENTED_EDGE('',*,*,#210,.T.);
#282=ORIENTED_EDGE('',*,*,#215,.T.);
#283=ORIENTED_EDGE('',*,*,#216,.T.);
#284=ORIENTED_EDGE('',*,*,#217,.T.);
#285=ORIENTED_EDGE('',*,*,#217,.F.);
#286=ORIENTED_EDGE('',*,*,#218,.T.);
#287=ORIENTED_EDGE('',*,*,#219,.T.);
#288=ORIENTED_EDGE('',*,*,#211,.T.);
#289=ORIENTED_EDGE('',*,*,#205,.F.);
#290=ORIENTED_EDGE('',*,*,#220,.T.);
#291=ORIENTED_EDGE('',*,*,#215,.F.);
#292=ORIENTED_EDGE('',*,*,#209,.T.);
#293=ORIENTED_EDGE('',*,*,#185,.T.);
#294=ORIENTED_EDGE('',*,*,#182,.T.);
#295=ORIENTED_EDGE('',*,*,#179,.T.);
#296=ORIENTED_EDGE('',*,*,#188,.T.);
#297=ORIENTED_EDGE('',*,*,#214,.T.);
#298=ORIENTED_EDGE('',*,*,#200,.F.);
#299=ORIENTED_EDGE('',*,*,#221,.T.);
#300=ORIENTED_EDGE('',*,*,#207,.T.);
#301=ORIENTED_EDGE('',*,*,#192,.F.);
#302=ORIENTED_EDGE('',*,*,#213,.T.);
#303=ORIENTED_EDGE('',*,*,#222,.F.);
#304=ORIENTED_EDGE('',*,*,#223,.T.);
#305=ORIENTED_EDGE('',*,*,#212,.T.);
#306=ORIENTED_EDGE('',*,*,#219,.F.);
#307=ORIENTED_EDGE('',*,*,#224,.T.);
#308=ORIENTED_EDGE('',*,*,#222,.T.);
#309=ORIENTED_EDGE('',*,*,#204,.F.);
#310=ORIENTED_EDGE('',*,*,#208,.F.);
#311=ORIENTED_EDGE('',*,*,#221,.F.);
#312=ORIENTED_EDGE('',*,*,#199,.F.);
#313=ORIENTED_EDGE('',*,*,#196,.F.);
#314=ORIENTED_EDGE('',*,*,#193,.F.);
#315=ORIENTED_EDGE('',*,*,#189,.F.);
#316=ORIENTED_EDGE('',*,*,#223,.F.);
#317=ORIENTED_EDGE('',*,*,#224,.F.);
#318=ORIENTED_EDGE('',*,*,#218,.F.);
#319=ORIENTED_EDGE('',*,*,#216,.F.);
#320=ORIENTED_EDGE('',*,*,#220,.F.);
#321=PLANE('',#371);
#322=PLANE('',#375);
#323=PLANE('',#382);
#324=PLANE('',#386);
#325=PLANE('',#390);
#326=PLANE('',#391);
#327=PLANE('',#395);
#328=PLANE('',#396);
#329=PLANE('',#397);
#330=PLANE('',#398);
#331=PLANE('',#399);
#332=PLANE('',#400);
#333=ADVANCED_FACE('',(#35),#321,.F.);
#334=ADVANCED_FACE('',(#36),#29,.F.);
#335=ADVANCED_FACE('',(#37),#322,.F.);
#336=ADVANCED_FACE('',(#38),#30,.F.);
#337=ADVANCED_FACE('',(#39),#31,.F.);
#338=ADVANCED_FACE('',(#40,#15),#323,.T.);
#339=ADVANCED_FACE('',(#41),#32,.F.);
#340=ADVANCED_FACE('',(#42),#324,.T.);
#341=ADVANCED_FACE('',(#43),#33,.T.);
#342=ADVANCED_FACE('',(#44),#325,.T.);
#343=ADVANCED_FACE('',(#45),#326,.T.);
#344=ADVANCED_FACE('',(#46),#34,.T.);
#345=ADVANCED_FACE('',(#47),#327,.T.);
#346=ADVANCED_FACE('',(#48,#16),#328,.T.);
#347=ADVANCED_FACE('',(#49),#329,.T.);
#348=ADVANCED_FACE('',(#50),#330,.T.);
#349=ADVANCED_FACE('',(#51),#331,.T.);
#350=ADVANCED_FACE('',(#52),#332,.F.);
#351=CLOSED_SHELL('',(#333,#334,#335,#336,#337,#338,#339,#340,#341,#342,
#343,#344,#345,#346,#347,#348,#349,#350));
#352=DERIVED_UNIT_ELEMENT(#354,1.);
#353=DERIVED_UNIT_ELEMENT(#603,-3.);
#354=(
MASS_UNIT()
NAMED_UNIT(*)
SI_UNIT($,.GRAM.)
);
#355=DERIVED_UNIT((#352,#353));
#356=MEASURE_REPRESENTATION_ITEM('density measure',
POSITIVE_RATIO_MEASURE(1.),#355);
#357=PROPERTY_DEFINITION_REPRESENTATION(#362,#359);
#358=PROPERTY_DEFINITION_REPRESENTATION(#363,#360);
#359=REPRESENTATION('material name',(#361),#600);
#360=REPRESENTATION('density',(#356),#600);
#361=DESCRIPTIVE_REPRESENTATION_ITEM('G\X\E9n\X\E9rique','G\X\E9n\X\E9
rique');
#362=PROPERTY_DEFINITION('material property','material name',#610);
#363=PROPERTY_DEFINITION('material property','density of part',#610);
#364=DATE_TIME_ROLE('creation_date');
#365=APPLIED_DATE_AND_TIME_ASSIGNMENT(#366,#364,(#610));
#366=DATE_AND_TIME(#367,#368);
#367=CALENDAR_DATE(2003,8,7);
#368=LOCAL_TIME(0,0,0.,#369);
#369=COORDINATED_UNIVERSAL_TIME_OFFSET(0,0,.BEHIND.);
#370=AXIS2_PLACEMENT_3D('placement',#499,#401,#402);
#371=AXIS2_PLACEMENT_3D('',#500,#403,#404);
#372=AXIS2_PLACEMENT_3D('',#509,#409,#410);
#373=AXIS2_PLACEMENT_3D('',#511,#411,#412);
#374=AXIS2_PLACEMENT_3D('',#513,#413,#414);
#375=AXIS2_PLACEMENT_3D('',#515,#416,#417);
#376=AXIS2_PLACEMENT_3D('',#521,#421,#422);
#377=AXIS2_PLACEMENT_3D('',#522,#423,#424);
#378=AXIS2_PLACEMENT_3D('',#523,#425,#426);
#379=AXIS2_PLACEMENT_3D('',#524,#427,#428);
#380=AXIS2_PLACEMENT_3D('',#527,#429,#430);
#381=AXIS2_PLACEMENT_3D('',#531,#432,#433);
#382=AXIS2_PLACEMENT_3D('',#533,#435,#436);
#383=AXIS2_PLACEMENT_3D('',#539,#440,#441);
#384=AXIS2_PLACEMENT_3D('',#541,#442,#443);
#385=AXIS2_PLACEMENT_3D('',#544,#445,#446);
#386=AXIS2_PLACEMENT_3D('',#545,#447,#448);
#387=AXIS2_PLACEMENT_3D('',#551,#452,#453);
#388=AXIS2_PLACEMENT_3D('',#554,#454,#455);
#389=AXIS2_PLACEMENT_3D('',#558,#457,#458);
#390=AXIS2_PLACEMENT_3D('',#560,#460,#461);
#391=AXIS2_PLACEMENT_3D('',#566,#465,#466);
#392=AXIS2_PLACEMENT_3D('',#570,#468,#469);
#393=AXIS2_PLACEMENT_3D('',#577,#474,#475);
#394=AXIS2_PLACEMENT_3D('',#581,#477,#478);
#395=AXIS2_PLACEMENT_3D('',#583,#480,#481);
#396=AXIS2_PLACEMENT_3D('',#587,#484,#485);
#397=AXIS2_PLACEMENT_3D('',#589,#487,#488);
#398=AXIS2_PLACEMENT_3D('',#591,#490,#491);
#399=AXIS2_PLACEMENT_3D('',#595,#494,#495);
#400=AXIS2_PLACEMENT_3D('',#597,#497,#498);
#401=DIRECTION('axis',(0.,0.,1.));
#402=DIRECTION('refdir',(1.,0.,0.));
#403=DIRECTION('center_axis',(1.,1.21016118682096E-16,4.44089209850063E-16));
#404=DIRECTION('ref_axis',(4.44089209850063E-16,0.,-1.));
#405=DIRECTION('',(4.44089209850063E-16,1.93693525835516E-31,-1.));
#406=DIRECTION('',(1.21016118682096E-16,-1.,0.));
#407=DIRECTION('',(-4.44089209850063E-16,-4.96766446191743E-32,1.));
#408=DIRECTION('',(1.21016118682096E-16,-1.,0.));
#409=DIRECTION('center_axis',(1.21016118682096E-16,-1.,0.));
#410=DIRECTION('ref_axis',(1.,1.21016118682096E-16,0.));
#411=DIRECTION('center_axis',(-4.36159045388454E-16,1.,0.));
#412=DIRECTION('ref_axis',(1.,1.21016118682096E-16,0.));
#413=DIRECTION('center_axis',(1.11861859097965E-16,-1.,0.));
#414=DIRECTION('ref_axis',(1.,1.21016118682096E-16,0.));
#415=DIRECTION('',(1.21016118682096E-16,-1.,0.));
#416=DIRECTION('center_axis',(-1.,-1.21016118682096E-16,4.44089209850063E-16));
#417=DIRECTION('ref_axis',(4.44089209850063E-16,0.,1.));
#418=DIRECTION('',(4.44089209850063E-16,1.93693525835516E-31,1.));
#419=DIRECTION('',(-4.44089209850063E-16,-4.96766446191743E-32,-1.));
#420=DIRECTION('',(1.21016118682096E-16,-1.,0.));
#421=DIRECTION('center_axis',(1.21016118682096E-16,-1.,0.));
#422=DIRECTION('ref_axis',(-1.,-1.21016118682096E-16,0.));
#423=DIRECTION('center_axis',(-4.36159045388454E-16,1.,0.));
#424=DIRECTION('ref_axis',(-1.,-1.21016118682096E-16,0.));
#425=DIRECTION('center_axis',(1.11861859097965E-16,-1.,0.));
#426=DIRECTION('ref_axis',(-1.,-1.21016118682096E-16,0.));
#427=DIRECTION('center_axis',(0.,0.,1.));
#428=DIRECTION('ref_axis',(-0.38268343236509,0.923879532511287,0.));
#429=DIRECTION('center_axis',(0.,0.,-1.));
#430=DIRECTION('ref_axis',(-0.38268343236509,0.923879532511287,0.));
#431=DIRECTION('',(0.,0.,1.));
#432=DIRECTION('center_axis',(0.,0.,1.));
#433=DIRECTION('ref_axis',(-0.38268343236509,0.923879532511287,0.));
#434=DIRECTION('',(0.,0.,-1.));
#435=DIRECTION('center_axis',(4.36159045388454E-16,-1.,0.));
#436=DIRECTION('ref_axis',(0.,0.,-1.));
#437=DIRECTION('',(1.,4.36159045388454E-16,0.));
#438=DIRECTION('',(0.,0.,-1.));
#439=DIRECTION('',(-1.,-4.36159045388454E-16,0.));
#440=DIRECTION('center_axis',(0.,0.,1.));
#441=DIRECTION('ref_axis',(0.382683432365089,0.923879532511287,0.));
#442=DIRECTION('center_axis',(0.,0.,-1.));
#443=DIRECTION('ref_axis',(0.382683432365089,0.923879532511287,0.));
#444=DIRECTION('',(0.,0.,1.));
#445=DIRECTION('center_axis',(0.,0.,1.));
#446=DIRECTION('ref_axis',(0.382683432365089,0.923879532511287,0.));
#447=DIRECTION('center_axis',(-0.707106781186547,-0.707106781186548,0.));
#448=DIRECTION('ref_axis',(0.,0.,1.));
#449=DIRECTION('',(0.707106781186548,-0.707106781186547,0.));
#450=DIRECTION('',(0.,0.,1.));
#451=DIRECTION('',(-0.707106781186548,0.707106781186547,0.));
#452=DIRECTION('center_axis',(0.,0.,1.));
#453=DIRECTION('ref_axis',(0.38268343236509,0.923879532511287,0.));
#454=DIRECTION('center_axis',(0.,0.,-1.));
#455=DIRECTION('ref_axis',(0.38268343236509,0.923879532511287,0.));
#456=DIRECTION('',(0.,0.,-1.));
#457=DIRECTION('center_axis',(0.,0.,1.));
#458=DIRECTION('ref_axis',(0.38268343236509,0.923879532511287,0.));
#459=DIRECTION('',(0.,0.,1.));
#460=DIRECTION('center_axis',(0.707106781186547,0.707106781186548,0.));
#461=DIRECTION('ref_axis',(0.,0.,-1.));
#462=DIRECTION('',(0.707106781186548,-0.707106781186547,0.));
#463=DIRECTION('',(0.,0.,1.));
#464=DIRECTION('',(-0.707106781186548,0.707106781186547,0.));
#465=DIRECTION('center_axis',(0.,0.,1.));
#466=DIRECTION('ref_axis',(1.,0.,0.));
#467=DIRECTION('',(1.,1.11861859097965E-16,0.));
#468=DIRECTION('center_axis',(0.,0.,-1.));
#469=DIRECTION('ref_axis',(-0.38268343236509,0.923879532511287,0.));
#470=DIRECTION('',(0.707106781186547,0.707106781186548,0.));
#471=DIRECTION('',(-0.707106781186548,0.707106781186547,0.));
#472=DIRECTION('',(-0.707106781186547,-0.707106781186548,0.));
#473=DIRECTION('',(-0.707106781186548,-0.707106781186547,0.));
#474=DIRECTION('center_axis',(0.,0.,1.));
#475=DIRECTION('ref_axis',(-0.38268343236509,0.923879532511287,0.));
#476=DIRECTION('',(0.,0.,-1.));
#477=DIRECTION('center_axis',(0.,0.,1.));
#478=DIRECTION('ref_axis',(-0.38268343236509,0.923879532511287,0.));
#479=DIRECTION('',(0.,0.,1.));
#480=DIRECTION('center_axis',(-0.707106781186548,0.707106781186547,0.));
#481=DIRECTION('ref_axis',(0.,0.,1.));
#482=DIRECTION('',(-0.707106781186547,-0.707106781186548,0.));
#483=DIRECTION('',(0.,0.,1.));
#484=DIRECTION('center_axis',(-1.11861859097965E-16,1.,0.));
#485=DIRECTION('ref_axis',(0.,0.,1.));
#486=DIRECTION('',(-1.,-1.10217052290935E-16,0.));
#487=DIRECTION('center_axis',(0.707106781186547,-0.707106781186548,0.));
#488=DIRECTION('ref_axis',(0.,0.,-1.));
#489=DIRECTION('',(0.707106781186548,0.707106781186547,0.));
#490=DIRECTION('center_axis',(0.707106781186548,-0.707106781186547,0.));
#491=DIRECTION('ref_axis',(0.,0.,-1.));
#492=DIRECTION('',(0.,0.,1.));
#493=DIRECTION('',(0.707106781186547,0.707106781186548,0.));
#494=DIRECTION('center_axis',(-0.707106781186547,-0.707106781186548,0.));
#495=DIRECTION('ref_axis',(0.,0.,1.));
#496=DIRECTION('',(0.707106781186548,-0.707106781186547,0.));
#497=DIRECTION('center_axis',(0.,0.,1.));
#498=DIRECTION('ref_axis',(1.,0.,0.));
#499=CARTESIAN_POINT('',(0.,0.,0.));
#500=CARTESIAN_POINT('Origin',(8.50000000000001,5.,30.));
#501=CARTESIAN_POINT('',(8.50000000000002,9.43689570931383E-15,30.));
#502=CARTESIAN_POINT('',(8.50000000000002,9.43689570931383E-15,20.));
#503=CARTESIAN_POINT('',(8.50000000000002,9.15933995315754E-15,15.));
#504=CARTESIAN_POINT('',(8.50000000000001,5.,30.));
#505=CARTESIAN_POINT('',(8.50000000000001,5.,30.));
#506=CARTESIAN_POINT('',(8.50000000000002,5.,20.));
#507=CARTESIAN_POINT('',(8.50000000000002,5.,15.));
#508=CARTESIAN_POINT('',(8.50000000000002,5.,20.));
#509=CARTESIAN_POINT('Origin',(1.33226762955019E-14,5.,20.));
#510=CARTESIAN_POINT('',(-8.49999999999999,1.66533453693773E-15,20.));
#511=CARTESIAN_POINT('Origin',(1.39277568889124E-14,1.4432899320127E-14,
20.));
#512=CARTESIAN_POINT('',(-8.49999999999999,5.,20.));
#513=CARTESIAN_POINT('Origin',(1.33226762955019E-14,5.,20.));
#514=CARTESIAN_POINT('',(-8.49999999999999,5.,20.));
#515=CARTESIAN_POINT('Origin',(-8.49999999999999,5.,20.));
#516=CARTESIAN_POINT('',(-8.49999999999999,1.66533453693773E-15,30.));
#517=CARTESIAN_POINT('',(-8.5,1.66533453693773E-15,10.));
#518=CARTESIAN_POINT('',(-8.49999999999999,5.,30.));
#519=CARTESIAN_POINT('',(-8.5,5.,10.));
#520=CARTESIAN_POINT('',(-8.49999999999999,5.,30.));
#521=CARTESIAN_POINT('Origin',(1.33226762955019E-14,5.,30.));
#522=CARTESIAN_POINT('Origin',(1.39277568889124E-14,1.4432899320127E-14,
30.));
#523=CARTESIAN_POINT('Origin',(1.33226762955019E-14,5.,30.));
#524=CARTESIAN_POINT('Origin',(-25.5147186257614,-6.00000000000001,0.));
#525=CARTESIAN_POINT('',(-29.7573593128807,-1.75735931288073,0.));
#526=CARTESIAN_POINT('',(-25.5147186257614,-5.57736019604134E-15,0.));
#527=CARTESIAN_POINT('Origin',(-25.5147186257614,-6.00000000000001,0.));
#528=CARTESIAN_POINT('',(-25.5147186257614,-5.57736019604134E-15,50.));
#529=CARTESIAN_POINT('',(-25.5147186257614,-5.55111512312578E-15,0.));
#530=CARTESIAN_POINT('',(-29.7573593128807,-1.75735931288073,50.));
#531=CARTESIAN_POINT('Origin',(-25.5147186257614,-6.00000000000001,50.));
#532=CARTESIAN_POINT('',(-29.7573593128807,-1.75735931288073,0.));
#533=CARTESIAN_POINT('Origin',(28.,1.77635683940025E-14,0.));
#534=CARTESIAN_POINT('',(25.5147186257614,1.66795904422929E-14,0.));
#535=CARTESIAN_POINT('',(-28.,-6.66133814775094E-15,0.));
#536=CARTESIAN_POINT('',(25.5147186257614,1.66795904422929E-14,50.));
#537=CARTESIAN_POINT('',(25.5147186257614,1.66533453693773E-14,0.));
#538=CARTESIAN_POINT('',(-28.,-6.66133814775094E-15,50.));
#539=CARTESIAN_POINT('Origin',(25.5147186257614,-5.99999999999998,0.));
#540=CARTESIAN_POINT('',(29.7573593128807,-1.7573593128807,0.));
#541=CARTESIAN_POINT('Origin',(25.5147186257614,-5.99999999999998,0.));
#542=CARTESIAN_POINT('',(29.7573593128807,-1.7573593128807,50.));
#543=CARTESIAN_POINT('',(29.7573593128807,-1.7573593128807,0.));
#544=CARTESIAN_POINT('Origin',(25.5147186257614,-5.99999999999998,50.));
#545=CARTESIAN_POINT('Origin',(47.4644660940673,-19.4644660940672,0.));
#546=CARTESIAN_POINT('',(47.4644660940673,-19.4644660940672,0.));
#547=CARTESIAN_POINT('',(28.,1.77635683940025E-14,0.));
#548=CARTESIAN_POINT('',(47.4644660940673,-19.4644660940672,50.));
#549=CARTESIAN_POINT('',(47.4644660940673,-19.4644660940672,0.));
#550=CARTESIAN_POINT('',(28.,1.77635683940025E-14,50.));
#551=CARTESIAN_POINT('Origin',(27.5857864376269,-0.999999999999999,0.));
#552=CARTESIAN_POINT('',(27.5857864376269,5.,50.));
#553=CARTESIAN_POINT('',(31.8284271247462,3.24264068711929,50.));
#554=CARTESIAN_POINT('Origin',(27.5857864376269,-0.999999999999999,50.));
#555=CARTESIAN_POINT('',(31.8284271247462,3.24264068711929,0.));
#556=CARTESIAN_POINT('',(31.8284271247462,3.24264068711929,0.));
#557=CARTESIAN_POINT('',(27.5857864376269,5.,0.));
#558=CARTESIAN_POINT('Origin',(27.5857864376269,-0.999999999999999,0.));
#559=CARTESIAN_POINT('',(27.5857864376269,5.,0.));
#560=CARTESIAN_POINT('Origin',(30.0710678118655,5.,0.));
#561=CARTESIAN_POINT('',(51.,-15.9289321881345,50.));
#562=CARTESIAN_POINT('',(51.,-15.9289321881345,50.));
#563=CARTESIAN_POINT('',(51.,-15.9289321881345,0.));
#564=CARTESIAN_POINT('',(51.,-15.9289321881345,0.));
#565=CARTESIAN_POINT('',(51.,-15.9289321881345,0.));
#566=CARTESIAN_POINT('Origin',(-8.88178419700125E-15,-3.05970048400657,
50.));
#567=CARTESIAN_POINT('',(-27.5857864376269,5.,50.));
#568=CARTESIAN_POINT('',(30.0710678118655,5.,50.));
#569=CARTESIAN_POINT('',(-31.8284271247462,3.24264068711928,50.));
#570=CARTESIAN_POINT('Origin',(-27.5857864376269,-1.00000000000001,50.));
#571=CARTESIAN_POINT('',(-51.,-15.9289321881346,50.));
#572=CARTESIAN_POINT('',(-30.0710678118655,5.,50.));
#573=CARTESIAN_POINT('',(-47.4644660940673,-19.4644660940673,50.));
#574=CARTESIAN_POINT('',(-51.,-15.9289321881346,50.));
#575=CARTESIAN_POINT('',(-47.4644660940673,-19.4644660940673,50.));
#576=CARTESIAN_POINT('',(47.4644660940673,-19.4644660940672,50.));
#577=CARTESIAN_POINT('Origin',(-27.5857864376269,-1.00000000000001,0.));
#578=CARTESIAN_POINT('',(-27.5857864376269,5.,0.));
#579=CARTESIAN_POINT('',(-27.5857864376269,5.,0.));
#580=CARTESIAN_POINT('',(-31.8284271247462,3.24264068711928,0.));
#581=CARTESIAN_POINT('Origin',(-27.5857864376269,-1.00000000000001,0.));
#582=CARTESIAN_POINT('',(-31.8284271247462,3.24264068711928,0.));
#583=CARTESIAN_POINT('Origin',(-51.,-15.9289321881346,0.));
#584=CARTESIAN_POINT('',(-51.,-15.9289321881346,0.));
#585=CARTESIAN_POINT('',(-30.0710678118655,5.,0.));
#586=CARTESIAN_POINT('',(-51.,-15.9289321881346,0.));
#587=CARTESIAN_POINT('Origin',(10.2211737804627,5.,0.));
#588=CARTESIAN_POINT('',(10.2211737804627,5.,0.));
#589=CARTESIAN_POINT('Origin',(51.,-15.9289321881345,0.));
#590=CARTESIAN_POINT('',(47.4644660940673,-19.4644660940672,0.));
#591=CARTESIAN_POINT('Origin',(-28.,-6.66133814775094E-15,0.));
#592=CARTESIAN_POINT('',(-47.4644660940673,-19.4644660940673,0.));
#593=CARTESIAN_POINT('',(-47.4644660940673,-19.4644660940673,0.));
#594=CARTESIAN_POINT('',(-47.4644660940673,-19.4644660940673,0.));
#595=CARTESIAN_POINT('Origin',(-47.4644660940673,-19.4644660940673,0.));
#596=CARTESIAN_POINT('',(-51.,-15.9289321881346,0.));
#597=CARTESIAN_POINT('Origin',(-6.66133814775094E-15,-3.05970048400657,
0.));
#598=UNCERTAINTY_MEASURE_WITH_UNIT(LENGTH_MEASURE(0.01),#602,
'DISTANCE_ACCURACY_VALUE',
'Maximum model space distance between geometric entities at asserted c
onnectivities');
#599=UNCERTAINTY_MEASURE_WITH_UNIT(LENGTH_MEASURE(0.01),#602,
'DISTANCE_ACCURACY_VALUE',
'Maximum model space distance between geometric entities at asserted c
onnectivities');
#600=(
GEOMETRIC_REPRESENTATION_CONTEXT(3)
GLOBAL_UNCERTAINTY_ASSIGNED_CONTEXT((#598))
GLOBAL_UNIT_ASSIGNED_CONTEXT((#602,#604,#605))
REPRESENTATION_CONTEXT('','3D')
);
#601=(
GEOMETRIC_REPRESENTATION_CONTEXT(3)
GLOBAL_UNCERTAINTY_ASSIGNED_CONTEXT((#599))
GLOBAL_UNIT_ASSIGNED_CONTEXT((#602,#604,#605))
REPRESENTATION_CONTEXT('','3D')
);
#602=(
LENGTH_UNIT()
NAMED_UNIT(*)
SI_UNIT(.MILLI.,.METRE.)
);
#603=(
LENGTH_UNIT()
NAMED_UNIT(*)
SI_UNIT(.CENTI.,.METRE.)
);
#604=(
NAMED_UNIT(*)
PLANE_ANGLE_UNIT()
SI_UNIT($,.RADIAN.)
);
#605=(
NAMED_UNIT(*)
SI_UNIT($,.STERADIAN.)
SOLID_ANGLE_UNIT()
);
#606=SHAPE_DEFINITION_REPRESENTATION(#607,#608);
#607=PRODUCT_DEFINITION_SHAPE('',$,#610);
#608=SHAPE_REPRESENTATION('',(#370),#600);
#609=PRODUCT_DEFINITION_CONTEXT('part definition',#614,'design');
#610=PRODUCT_DEFINITION('85','85',#611,#609);
#611=PRODUCT_DEFINITION_FORMATION('',$,#616);
#612=PRODUCT_RELATED_PRODUCT_CATEGORY('85','85',(#616));
#613=APPLICATION_PROTOCOL_DEFINITION('international standard',
'automotive_design',2009,#614);
#614=APPLICATION_CONTEXT(
'Core Data for Automotive Mechanical Design Process');
#615=PRODUCT_CONTEXT('part definition',#614,'mechanical');
#616=PRODUCT('85','85',$,(#615));
#617=PRESENTATION_STYLE_ASSIGNMENT((#618));
#618=SURFACE_STYLE_USAGE(.BOTH.,#621);
#619=SURFACE_STYLE_RENDERING_WITH_PROPERTIES($,#625,(#620));
#620=SURFACE_STYLE_TRANSPARENT(0.);
#621=SURFACE_SIDE_STYLE('',(#622,#619));
#622=SURFACE_STYLE_FILL_AREA(#623);
#623=FILL_AREA_STYLE('',(#624));
#624=FILL_AREA_STYLE_COLOUR('',#625);
#625=COLOUR_RGB('',0.752941176470588,0.752941176470588,0.752941176470588);
ENDSEC;
END-ISO-10303-21;
