ISO-10303-21;
HEADER;
/* Generated by software containing ST-Developer
 * from STEP Tools, Inc. (www.steptools.com) 
 */

FILE_DESCRIPTION(
/* description */ (''),
/* implementation_level */ '2;1');

FILE_NAME(
/* name */ 'R:\\BE\\Inventor\\PRODUITS\\STP\\75S.stp',
/* time_stamp */ '2017-02-16T16:01:46+01:00',
/* author */ ('Giuliano'),
/* organization */ (''),
/* preprocessor_version */ 'ST-DEVELOPER v16.5',
/* originating_system */ 'Autodesk Inventor 2017',
/* authorisation */ '');

FILE_SCHEMA (('AUTOMOTIVE_DESIGN { 1 0 10303 214 3 1 1 }'));
ENDSEC;

DATA;
#10=MECHANICAL_DESIGN_GEOMETRIC_PRESENTATION_REPRESENTATION('',(#264,#265,
#266,#267,#268,#269,#270,#271,#272,#277,#273,#274,#275,#276,#278,#279,#280),
#469);
#11=SHAPE_REPRESENTATION_RELATIONSHIP('SRR','None',#478,#12);
#12=ADVANCED_BREP_SHAPE_REPRESENTATION('',(#13),#468);
#13=MANIFOLD_SOLID_BREP('Solide1',#297);
#14=LINE('',#403,#44);
#15=LINE('',#405,#45);
#16=LINE('',#407,#46);
#17=LINE('',#408,#47);
#18=LINE('',#411,#48);
#19=LINE('',#413,#49);
#20=LINE('',#414,#50);
#21=LINE('',#417,#51);
#22=LINE('',#419,#52);
#23=LINE('',#420,#53);
#24=LINE('',#423,#54);
#25=LINE('',#425,#55);
#26=LINE('',#426,#56);
#27=LINE('',#429,#57);
#28=LINE('',#431,#58);
#29=LINE('',#432,#59);
#30=LINE('',#434,#60);
#31=LINE('',#435,#61);
#32=LINE('',#443,#62);
#33=LINE('',#445,#63);
#34=LINE('',#447,#64);
#35=LINE('',#448,#65);
#36=LINE('',#451,#66);
#37=LINE('',#453,#67);
#38=LINE('',#454,#68);
#39=LINE('',#457,#69);
#40=LINE('',#459,#70);
#41=LINE('',#460,#71);
#42=LINE('',#462,#72);
#43=LINE('',#463,#73);
#44=VECTOR('',#333,10.);
#45=VECTOR('',#334,10.);
#46=VECTOR('',#335,10.);
#47=VECTOR('',#336,10.);
#48=VECTOR('',#339,10.);
#49=VECTOR('',#340,10.);
#50=VECTOR('',#341,10.);
#51=VECTOR('',#344,10.);
#52=VECTOR('',#345,10.);
#53=VECTOR('',#346,10.);
#54=VECTOR('',#349,10.);
#55=VECTOR('',#350,10.);
#56=VECTOR('',#351,10.);
#57=VECTOR('',#354,10.);
#58=VECTOR('',#355,10.);
#59=VECTOR('',#356,10.);
#60=VECTOR('',#359,10.);
#61=VECTOR('',#360,10.);
#62=VECTOR('',#369,10.);
#63=VECTOR('',#370,10.);
#64=VECTOR('',#371,10.);
#65=VECTOR('',#372,10.);
#66=VECTOR('',#375,10.);
#67=VECTOR('',#376,10.);
#68=VECTOR('',#377,10.);
#69=VECTOR('',#380,10.);
#70=VECTOR('',#381,10.);
#71=VECTOR('',#382,10.);
#72=VECTOR('',#385,10.);
#73=VECTOR('',#386,10.);
#74=PLANE('',#302);
#75=PLANE('',#304);
#76=PLANE('',#305);
#77=PLANE('',#306);
#78=PLANE('',#307);
#79=PLANE('',#308);
#80=PLANE('',#309);
#81=PLANE('',#310);
#82=PLANE('',#313);
#83=PLANE('',#314);
#84=PLANE('',#315);
#85=PLANE('',#316);
#86=PLANE('',#317);
#87=PLANE('',#318);
#88=FACE_BOUND('',#111,.T.);
#89=FACE_BOUND('',#113,.T.);
#90=FACE_BOUND('',#121,.T.);
#91=FACE_BOUND('',#123,.T.);
#92=FACE_BOUND('',#129,.T.);
#93=FACE_BOUND('',#131,.T.);
#94=FACE_OUTER_BOUND('',#110,.T.);
#95=FACE_OUTER_BOUND('',#112,.T.);
#96=FACE_OUTER_BOUND('',#114,.T.);
#97=FACE_OUTER_BOUND('',#115,.T.);
#98=FACE_OUTER_BOUND('',#116,.T.);
#99=FACE_OUTER_BOUND('',#117,.T.);
#100=FACE_OUTER_BOUND('',#118,.T.);
#101=FACE_OUTER_BOUND('',#119,.T.);
#102=FACE_OUTER_BOUND('',#120,.T.);
#103=FACE_OUTER_BOUND('',#122,.T.);
#104=FACE_OUTER_BOUND('',#124,.T.);
#105=FACE_OUTER_BOUND('',#125,.T.);
#106=FACE_OUTER_BOUND('',#126,.T.);
#107=FACE_OUTER_BOUND('',#127,.T.);
#108=FACE_OUTER_BOUND('',#128,.T.);
#109=FACE_OUTER_BOUND('',#130,.T.);
#110=EDGE_LOOP('',(#194));
#111=EDGE_LOOP('',(#195));
#112=EDGE_LOOP('',(#196));
#113=EDGE_LOOP('',(#197));
#114=EDGE_LOOP('',(#198,#199,#200,#201));
#115=EDGE_LOOP('',(#202,#203,#204,#205));
#116=EDGE_LOOP('',(#206,#207,#208,#209));
#117=EDGE_LOOP('',(#210,#211,#212,#213));
#118=EDGE_LOOP('',(#214,#215,#216,#217));
#119=EDGE_LOOP('',(#218,#219,#220,#221));
#120=EDGE_LOOP('',(#222,#223,#224,#225,#226,#227));
#121=EDGE_LOOP('',(#228));
#122=EDGE_LOOP('',(#229));
#123=EDGE_LOOP('',(#230));
#124=EDGE_LOOP('',(#231,#232,#233,#234));
#125=EDGE_LOOP('',(#235,#236,#237,#238));
#126=EDGE_LOOP('',(#239,#240,#241,#242));
#127=EDGE_LOOP('',(#243,#244,#245,#246));
#128=EDGE_LOOP('',(#247,#248,#249,#250));
#129=EDGE_LOOP('',(#251));
#130=EDGE_LOOP('',(#252,#253,#254,#255));
#131=EDGE_LOOP('',(#256,#257,#258,#259,#260,#261));
#132=CIRCLE('',#300,13.1055);
#133=CIRCLE('',#301,13.1055);
#134=CIRCLE('',#303,15.5);
#135=CIRCLE('',#312,15.5);
#136=VERTEX_POINT('',#393);
#137=VERTEX_POINT('',#395);
#138=VERTEX_POINT('',#398);
#139=VERTEX_POINT('',#401);
#140=VERTEX_POINT('',#402);
#141=VERTEX_POINT('',#404);
#142=VERTEX_POINT('',#406);
#143=VERTEX_POINT('',#410);
#144=VERTEX_POINT('',#412);
#145=VERTEX_POINT('',#416);
#146=VERTEX_POINT('',#418);
#147=VERTEX_POINT('',#422);
#148=VERTEX_POINT('',#424);
#149=VERTEX_POINT('',#428);
#150=VERTEX_POINT('',#430);
#151=VERTEX_POINT('',#438);
#152=VERTEX_POINT('',#441);
#153=VERTEX_POINT('',#442);
#154=VERTEX_POINT('',#444);
#155=VERTEX_POINT('',#446);
#156=VERTEX_POINT('',#450);
#157=VERTEX_POINT('',#452);
#158=VERTEX_POINT('',#456);
#159=VERTEX_POINT('',#458);
#160=EDGE_CURVE('',#136,#136,#132,.T.);
#161=EDGE_CURVE('',#137,#137,#133,.T.);
#162=EDGE_CURVE('',#138,#138,#134,.T.);
#163=EDGE_CURVE('',#139,#140,#14,.T.);
#164=EDGE_CURVE('',#141,#140,#15,.T.);
#165=EDGE_CURVE('',#142,#141,#16,.T.);
#166=EDGE_CURVE('',#142,#139,#17,.T.);
#167=EDGE_CURVE('',#140,#143,#18,.T.);
#168=EDGE_CURVE('',#144,#143,#19,.T.);
#169=EDGE_CURVE('',#141,#144,#20,.T.);
#170=EDGE_CURVE('',#143,#145,#21,.T.);
#171=EDGE_CURVE('',#146,#145,#22,.T.);
#172=EDGE_CURVE('',#144,#146,#23,.T.);
#173=EDGE_CURVE('',#145,#147,#24,.T.);
#174=EDGE_CURVE('',#148,#147,#25,.T.);
#175=EDGE_CURVE('',#146,#148,#26,.T.);
#176=EDGE_CURVE('',#147,#149,#27,.T.);
#177=EDGE_CURVE('',#150,#149,#28,.T.);
#178=EDGE_CURVE('',#148,#150,#29,.T.);
#179=EDGE_CURVE('',#149,#139,#30,.T.);
#180=EDGE_CURVE('',#150,#142,#31,.T.);
#181=EDGE_CURVE('',#151,#151,#135,.T.);
#182=EDGE_CURVE('',#152,#153,#32,.T.);
#183=EDGE_CURVE('',#154,#153,#33,.T.);
#184=EDGE_CURVE('',#154,#155,#34,.T.);
#185=EDGE_CURVE('',#155,#152,#35,.T.);
#186=EDGE_CURVE('',#153,#156,#36,.T.);
#187=EDGE_CURVE('',#157,#156,#37,.T.);
#188=EDGE_CURVE('',#157,#154,#38,.T.);
#189=EDGE_CURVE('',#156,#158,#39,.T.);
#190=EDGE_CURVE('',#159,#158,#40,.T.);
#191=EDGE_CURVE('',#159,#157,#41,.T.);
#192=EDGE_CURVE('',#158,#152,#42,.T.);
#193=EDGE_CURVE('',#155,#159,#43,.T.);
#194=ORIENTED_EDGE('',*,*,#160,.F.);
#195=ORIENTED_EDGE('',*,*,#161,.F.);
#196=ORIENTED_EDGE('',*,*,#162,.T.);
#197=ORIENTED_EDGE('',*,*,#160,.T.);
#198=ORIENTED_EDGE('',*,*,#163,.T.);
#199=ORIENTED_EDGE('',*,*,#164,.F.);
#200=ORIENTED_EDGE('',*,*,#165,.F.);
#201=ORIENTED_EDGE('',*,*,#166,.T.);
#202=ORIENTED_EDGE('',*,*,#167,.T.);
#203=ORIENTED_EDGE('',*,*,#168,.F.);
#204=ORIENTED_EDGE('',*,*,#169,.F.);
#205=ORIENTED_EDGE('',*,*,#164,.T.);
#206=ORIENTED_EDGE('',*,*,#170,.T.);
#207=ORIENTED_EDGE('',*,*,#171,.F.);
#208=ORIENTED_EDGE('',*,*,#172,.F.);
#209=ORIENTED_EDGE('',*,*,#168,.T.);
#210=ORIENTED_EDGE('',*,*,#173,.T.);
#211=ORIENTED_EDGE('',*,*,#174,.F.);
#212=ORIENTED_EDGE('',*,*,#175,.F.);
#213=ORIENTED_EDGE('',*,*,#171,.T.);
#214=ORIENTED_EDGE('',*,*,#176,.T.);
#215=ORIENTED_EDGE('',*,*,#177,.F.);
#216=ORIENTED_EDGE('',*,*,#178,.F.);
#217=ORIENTED_EDGE('',*,*,#174,.T.);
#218=ORIENTED_EDGE('',*,*,#179,.T.);
#219=ORIENTED_EDGE('',*,*,#166,.F.);
#220=ORIENTED_EDGE('',*,*,#180,.F.);
#221=ORIENTED_EDGE('',*,*,#177,.T.);
#222=ORIENTED_EDGE('',*,*,#163,.F.);
#223=ORIENTED_EDGE('',*,*,#179,.F.);
#224=ORIENTED_EDGE('',*,*,#176,.F.);
#225=ORIENTED_EDGE('',*,*,#173,.F.);
#226=ORIENTED_EDGE('',*,*,#170,.F.);
#227=ORIENTED_EDGE('',*,*,#167,.F.);
#228=ORIENTED_EDGE('',*,*,#161,.T.);
#229=ORIENTED_EDGE('',*,*,#181,.F.);
#230=ORIENTED_EDGE('',*,*,#162,.F.);
#231=ORIENTED_EDGE('',*,*,#182,.T.);
#232=ORIENTED_EDGE('',*,*,#183,.F.);
#233=ORIENTED_EDGE('',*,*,#184,.T.);
#234=ORIENTED_EDGE('',*,*,#185,.T.);
#235=ORIENTED_EDGE('',*,*,#186,.T.);
#236=ORIENTED_EDGE('',*,*,#187,.F.);
#237=ORIENTED_EDGE('',*,*,#188,.T.);
#238=ORIENTED_EDGE('',*,*,#183,.T.);
#239=ORIENTED_EDGE('',*,*,#189,.T.);
#240=ORIENTED_EDGE('',*,*,#190,.F.);
#241=ORIENTED_EDGE('',*,*,#191,.T.);
#242=ORIENTED_EDGE('',*,*,#187,.T.);
#243=ORIENTED_EDGE('',*,*,#192,.T.);
#244=ORIENTED_EDGE('',*,*,#185,.F.);
#245=ORIENTED_EDGE('',*,*,#193,.T.);
#246=ORIENTED_EDGE('',*,*,#190,.T.);
#247=ORIENTED_EDGE('',*,*,#193,.F.);
#248=ORIENTED_EDGE('',*,*,#184,.F.);
#249=ORIENTED_EDGE('',*,*,#188,.F.);
#250=ORIENTED_EDGE('',*,*,#191,.F.);
#251=ORIENTED_EDGE('',*,*,#181,.T.);
#252=ORIENTED_EDGE('',*,*,#182,.F.);
#253=ORIENTED_EDGE('',*,*,#192,.F.);
#254=ORIENTED_EDGE('',*,*,#189,.F.);
#255=ORIENTED_EDGE('',*,*,#186,.F.);
#256=ORIENTED_EDGE('',*,*,#165,.T.);
#257=ORIENTED_EDGE('',*,*,#169,.T.);
#258=ORIENTED_EDGE('',*,*,#172,.T.);
#259=ORIENTED_EDGE('',*,*,#175,.T.);
#260=ORIENTED_EDGE('',*,*,#178,.T.);
#261=ORIENTED_EDGE('',*,*,#180,.T.);
#262=CYLINDRICAL_SURFACE('',#299,13.1055);
#263=CYLINDRICAL_SURFACE('',#311,15.5);
#264=STYLED_ITEM('',(#488),#281);
#265=STYLED_ITEM('',(#488),#282);
#266=STYLED_ITEM('',(#488),#283);
#267=STYLED_ITEM('',(#488),#284);
#268=STYLED_ITEM('',(#488),#285);
#269=STYLED_ITEM('',(#488),#286);
#270=STYLED_ITEM('',(#488),#287);
#271=STYLED_ITEM('',(#488),#288);
#272=STYLED_ITEM('',(#488),#289);
#273=STYLED_ITEM('',(#488),#290);
#274=STYLED_ITEM('',(#488),#291);
#275=STYLED_ITEM('',(#488),#292);
#276=STYLED_ITEM('',(#488),#293);
#277=STYLED_ITEM('',(#488),#294);
#278=STYLED_ITEM('',(#488),#295);
#279=STYLED_ITEM('',(#488),#296);
#280=STYLED_ITEM('',(#487),#13);
#281=ADVANCED_FACE('',(#94,#88),#262,.F.);
#282=ADVANCED_FACE('',(#95,#89),#74,.F.);
#283=ADVANCED_FACE('',(#96),#75,.T.);
#284=ADVANCED_FACE('',(#97),#76,.T.);
#285=ADVANCED_FACE('',(#98),#77,.T.);
#286=ADVANCED_FACE('',(#99),#78,.T.);
#287=ADVANCED_FACE('',(#100),#79,.T.);
#288=ADVANCED_FACE('',(#101),#80,.T.);
#289=ADVANCED_FACE('',(#102,#90),#81,.T.);
#290=ADVANCED_FACE('',(#103,#91),#263,.F.);
#291=ADVANCED_FACE('',(#104),#82,.T.);
#292=ADVANCED_FACE('',(#105),#83,.T.);
#293=ADVANCED_FACE('',(#106),#84,.T.);
#294=ADVANCED_FACE('',(#107),#85,.T.);
#295=ADVANCED_FACE('',(#108,#92),#86,.F.);
#296=ADVANCED_FACE('',(#109,#93),#87,.T.);
#297=CLOSED_SHELL('',(#281,#282,#283,#284,#285,#286,#287,#288,#289,#290,
#291,#292,#293,#294,#295,#296));
#298=AXIS2_PLACEMENT_3D('placement',#391,#319,#320);
#299=AXIS2_PLACEMENT_3D('',#392,#321,#322);
#300=AXIS2_PLACEMENT_3D('',#394,#323,#324);
#301=AXIS2_PLACEMENT_3D('',#396,#325,#326);
#302=AXIS2_PLACEMENT_3D('',#397,#327,#328);
#303=AXIS2_PLACEMENT_3D('',#399,#329,#330);
#304=AXIS2_PLACEMENT_3D('',#400,#331,#332);
#305=AXIS2_PLACEMENT_3D('',#409,#337,#338);
#306=AXIS2_PLACEMENT_3D('',#415,#342,#343);
#307=AXIS2_PLACEMENT_3D('',#421,#347,#348);
#308=AXIS2_PLACEMENT_3D('',#427,#352,#353);
#309=AXIS2_PLACEMENT_3D('',#433,#357,#358);
#310=AXIS2_PLACEMENT_3D('',#436,#361,#362);
#311=AXIS2_PLACEMENT_3D('',#437,#363,#364);
#312=AXIS2_PLACEMENT_3D('',#439,#365,#366);
#313=AXIS2_PLACEMENT_3D('',#440,#367,#368);
#314=AXIS2_PLACEMENT_3D('',#449,#373,#374);
#315=AXIS2_PLACEMENT_3D('',#455,#378,#379);
#316=AXIS2_PLACEMENT_3D('',#461,#383,#384);
#317=AXIS2_PLACEMENT_3D('',#464,#387,#388);
#318=AXIS2_PLACEMENT_3D('',#465,#389,#390);
#319=DIRECTION('axis',(0.,0.,1.));
#320=DIRECTION('refdir',(1.,0.,0.));
#321=DIRECTION('center_axis',(0.,0.,1.));
#322=DIRECTION('ref_axis',(1.,0.,0.));
#323=DIRECTION('center_axis',(0.,0.,1.));
#324=DIRECTION('ref_axis',(1.,0.,0.));
#325=DIRECTION('center_axis',(0.,0.,-1.));
#326=DIRECTION('ref_axis',(1.,0.,0.));
#327=DIRECTION('center_axis',(0.,0.,1.));
#328=DIRECTION('ref_axis',(1.,0.,0.));
#329=DIRECTION('center_axis',(0.,0.,-1.));
#330=DIRECTION('ref_axis',(-1.,0.,0.));
#331=DIRECTION('center_axis',(0.500000000000002,0.866025403784438,0.));
#332=DIRECTION('ref_axis',(0.,0.,-1.));
#333=DIRECTION('',(0.866025403784438,-0.500000000000002,0.));
#334=DIRECTION('',(0.,0.,1.));
#335=DIRECTION('',(0.866025403784438,-0.500000000000002,0.));
#336=DIRECTION('',(0.,0.,1.));
#337=DIRECTION('center_axis',(1.,-9.23022089464112E-16,0.));
#338=DIRECTION('ref_axis',(0.,0.,-1.));
#339=DIRECTION('',(-9.23022089464112E-16,-1.,0.));
#340=DIRECTION('',(0.,0.,1.));
#341=DIRECTION('',(-9.23022089464112E-16,-1.,0.));
#342=DIRECTION('center_axis',(0.5,-0.866025403784439,0.));
#343=DIRECTION('ref_axis',(0.,0.,-1.));
#344=DIRECTION('',(-0.866025403784439,-0.5,0.));
#345=DIRECTION('',(0.,0.,1.));
#346=DIRECTION('',(-0.866025403784439,-0.5,0.));
#347=DIRECTION('center_axis',(-0.5,-0.866025403784439,0.));
#348=DIRECTION('ref_axis',(0.,0.,1.));
#349=DIRECTION('',(-0.866025403784439,0.5,0.));
#350=DIRECTION('',(0.,0.,1.));
#351=DIRECTION('',(-0.866025403784439,0.5,0.));
#352=DIRECTION('center_axis',(-1.,1.99988119383891E-15,0.));
#353=DIRECTION('ref_axis',(0.,0.,1.));
#354=DIRECTION('',(1.99988119383891E-15,1.,0.));
#355=DIRECTION('',(0.,0.,1.));
#356=DIRECTION('',(1.99988119383891E-15,1.,0.));
#357=DIRECTION('center_axis',(-0.499999999999999,0.866025403784439,0.));
#358=DIRECTION('ref_axis',(0.,0.,1.));
#359=DIRECTION('',(0.866025403784439,0.499999999999999,0.));
#360=DIRECTION('',(0.866025403784439,0.499999999999999,0.));
#361=DIRECTION('center_axis',(0.,0.,1.));
#362=DIRECTION('ref_axis',(1.,0.,0.));
#363=DIRECTION('center_axis',(0.,0.,-1.));
#364=DIRECTION('ref_axis',(-1.,0.,0.));
#365=DIRECTION('center_axis',(0.,0.,1.));
#366=DIRECTION('ref_axis',(-1.,0.,0.));
#367=DIRECTION('center_axis',(-1.,-2.3054212935316E-16,0.));
#368=DIRECTION('ref_axis',(0.,0.,1.));
#369=DIRECTION('',(-2.3054212935316E-16,1.,0.));
#370=DIRECTION('',(0.,0.,1.));
#371=DIRECTION('',(2.3054212935316E-16,-1.,0.));
#372=DIRECTION('',(0.,0.,1.));
#373=DIRECTION('center_axis',(0.,1.,0.));
#374=DIRECTION('ref_axis',(0.,0.,1.));
#375=DIRECTION('',(1.,0.,0.));
#376=DIRECTION('',(0.,0.,1.));
#377=DIRECTION('',(-1.,0.,0.));
#378=DIRECTION('center_axis',(1.,1.77635683940025E-16,0.));
#379=DIRECTION('ref_axis',(0.,0.,-1.));
#380=DIRECTION('',(1.77635683940025E-16,-1.,0.));
#381=DIRECTION('',(0.,0.,1.));
#382=DIRECTION('',(-1.77635683940025E-16,1.,0.));
#383=DIRECTION('center_axis',(0.,-1.,0.));
#384=DIRECTION('ref_axis',(0.,0.,-1.));
#385=DIRECTION('',(-1.,0.,0.));
#386=DIRECTION('',(1.,0.,0.));
#387=DIRECTION('center_axis',(0.,0.,1.));
#388=DIRECTION('ref_axis',(1.,0.,0.));
#389=DIRECTION('center_axis',(0.,0.,1.));
#390=DIRECTION('ref_axis',(1.,0.,0.));
#391=CARTESIAN_POINT('',(0.,0.,0.));
#392=CARTESIAN_POINT('Origin',(39.9999999999999,125.,-238.675937468704));
#393=CARTESIAN_POINT('',(26.8944999999999,125.,10.));
#394=CARTESIAN_POINT('Origin',(39.9999999999999,125.,10.));
#395=CARTESIAN_POINT('',(53.1054999999999,125.,25.));
#396=CARTESIAN_POINT('Origin',(39.9999999999999,125.,25.));
#397=CARTESIAN_POINT('Origin',(39.9999999999999,125.,10.));
#398=CARTESIAN_POINT('',(55.5,125.,10.));
#399=CARTESIAN_POINT('Origin',(40.,125.,10.));
#400=CARTESIAN_POINT('Origin',(39.9999999999999,153.867513459481,10.));
#401=CARTESIAN_POINT('',(39.9999999999999,153.867513459481,25.));
#402=CARTESIAN_POINT('',(64.9999999999999,139.433756729741,25.));
#403=CARTESIAN_POINT('',(39.9999999999999,153.867513459481,25.));
#404=CARTESIAN_POINT('',(64.9999999999999,139.433756729741,10.));
#405=CARTESIAN_POINT('',(64.9999999999999,139.433756729741,10.));
#406=CARTESIAN_POINT('',(39.9999999999999,153.867513459481,10.));
#407=CARTESIAN_POINT('',(46.25,150.259074277046,10.));
#408=CARTESIAN_POINT('',(39.9999999999999,153.867513459481,10.));
#409=CARTESIAN_POINT('Origin',(64.9999999999999,139.433756729741,10.));
#410=CARTESIAN_POINT('',(64.9999999999999,110.566243270259,25.));
#411=CARTESIAN_POINT('',(64.9999999999999,139.433756729741,25.));
#412=CARTESIAN_POINT('',(64.9999999999999,110.566243270259,10.));
#413=CARTESIAN_POINT('',(64.9999999999999,110.566243270259,10.));
#414=CARTESIAN_POINT('',(64.9999999999999,132.21687836487,10.));
#415=CARTESIAN_POINT('Origin',(64.9999999999999,110.566243270259,10.));
#416=CARTESIAN_POINT('',(39.9999999999999,96.1324865405187,25.));
#417=CARTESIAN_POINT('',(64.9999999999999,110.566243270259,25.));
#418=CARTESIAN_POINT('',(39.9999999999999,96.1324865405187,10.));
#419=CARTESIAN_POINT('',(39.9999999999999,96.1324865405187,10.));
#420=CARTESIAN_POINT('',(58.7499999999999,106.957804087824,10.));
#421=CARTESIAN_POINT('Origin',(39.9999999999999,96.1324865405187,10.));
#422=CARTESIAN_POINT('',(14.9999999999999,110.566243270259,25.));
#423=CARTESIAN_POINT('',(39.9999999999999,96.1324865405187,25.));
#424=CARTESIAN_POINT('',(14.9999999999999,110.566243270259,10.));
#425=CARTESIAN_POINT('',(14.9999999999999,110.566243270259,10.));
#426=CARTESIAN_POINT('',(33.7499999999999,99.7409257229539,10.));
#427=CARTESIAN_POINT('Origin',(14.9999999999999,110.566243270259,10.));
#428=CARTESIAN_POINT('',(14.9999999999999,139.433756729741,25.));
#429=CARTESIAN_POINT('',(14.9999999999999,110.566243270259,25.));
#430=CARTESIAN_POINT('',(14.9999999999999,139.433756729741,10.));
#431=CARTESIAN_POINT('',(14.9999999999999,139.433756729741,10.));
#432=CARTESIAN_POINT('',(14.9999999999999,117.78312163513,10.));
#433=CARTESIAN_POINT('Origin',(14.9999999999999,139.433756729741,10.));
#434=CARTESIAN_POINT('',(14.9999999999999,139.433756729741,25.));
#435=CARTESIAN_POINT('',(21.25,143.042195912176,10.));
#436=CARTESIAN_POINT('Origin',(39.9999999999999,125.,25.));
#437=CARTESIAN_POINT('Origin',(40.,125.,10.));
#438=CARTESIAN_POINT('',(55.5,125.,0.));
#439=CARTESIAN_POINT('Origin',(40.,125.,0.));
#440=CARTESIAN_POINT('Origin',(0.,0.,0.));
#441=CARTESIAN_POINT('',(0.,0.,10.));
#442=CARTESIAN_POINT('',(-5.763553233829E-14,250.,10.));
#443=CARTESIAN_POINT('',(-5.763553233829E-14,250.,10.));
#444=CARTESIAN_POINT('',(-5.763553233829E-14,250.,0.));
#445=CARTESIAN_POINT('',(-5.763553233829E-14,250.,0.));
#446=CARTESIAN_POINT('',(0.,0.,0.));
#447=CARTESIAN_POINT('',(-5.763553233829E-14,250.,0.));
#448=CARTESIAN_POINT('',(0.,0.,0.));
#449=CARTESIAN_POINT('Origin',(-5.763553233829E-14,250.,0.));
#450=CARTESIAN_POINT('',(79.9999999999999,250.,10.));
#451=CARTESIAN_POINT('',(79.9999999999999,250.,10.));
#452=CARTESIAN_POINT('',(79.9999999999999,250.,0.));
#453=CARTESIAN_POINT('',(79.9999999999999,250.,0.));
#454=CARTESIAN_POINT('',(79.9999999999999,250.,0.));
#455=CARTESIAN_POINT('Origin',(79.9999999999999,250.,0.));
#456=CARTESIAN_POINT('',(80.,0.,10.));
#457=CARTESIAN_POINT('',(80.,0.,10.));
#458=CARTESIAN_POINT('',(80.,0.,0.));
#459=CARTESIAN_POINT('',(80.,0.,0.));
#460=CARTESIAN_POINT('',(80.,0.,0.));
#461=CARTESIAN_POINT('Origin',(80.,0.,0.));
#462=CARTESIAN_POINT('',(0.,0.,10.));
#463=CARTESIAN_POINT('',(0.,0.,0.));
#464=CARTESIAN_POINT('Origin',(40.,125.,0.));
#465=CARTESIAN_POINT('Origin',(40.,125.,10.));
#466=UNCERTAINTY_MEASURE_WITH_UNIT(LENGTH_MEASURE(0.01),#470,
'DISTANCE_ACCURACY_VALUE',
'Maximum model space distance between geometric entities at asserted c
onnectivities');
#467=UNCERTAINTY_MEASURE_WITH_UNIT(LENGTH_MEASURE(1.E-6),#470,
'DISTANCE_ACCURACY_VALUE',
'Maximum model space distance between geometric entities at asserted c
onnectivities');
#468=(
GEOMETRIC_REPRESENTATION_CONTEXT(3)
GLOBAL_UNCERTAINTY_ASSIGNED_CONTEXT((#466))
GLOBAL_UNIT_ASSIGNED_CONTEXT((#470,#473,#471))
REPRESENTATION_CONTEXT('','3D')
);
#469=(
GEOMETRIC_REPRESENTATION_CONTEXT(3)
GLOBAL_UNCERTAINTY_ASSIGNED_CONTEXT((#467))
GLOBAL_UNIT_ASSIGNED_CONTEXT((#470,#473,#471))
REPRESENTATION_CONTEXT('','3D')
);
#470=(
LENGTH_UNIT()
NAMED_UNIT(*)
SI_UNIT(.MILLI.,.METRE.)
);
#471=(
NAMED_UNIT(*)
SI_UNIT($,.STERADIAN.)
SOLID_ANGLE_UNIT()
);
#472=DIMENSIONAL_EXPONENTS(0.,0.,0.,0.,0.,0.,0.);
#473=(
CONVERSION_BASED_UNIT('degree',#475)
NAMED_UNIT(#472)
PLANE_ANGLE_UNIT()
);
#474=(
NAMED_UNIT(*)
PLANE_ANGLE_UNIT()
SI_UNIT($,.RADIAN.)
);
#475=PLANE_ANGLE_MEASURE_WITH_UNIT(PLANE_ANGLE_MEASURE(0.01745329252),#474);
#476=SHAPE_DEFINITION_REPRESENTATION(#477,#478);
#477=PRODUCT_DEFINITION_SHAPE('',$,#480);
#478=SHAPE_REPRESENTATION('',(#298),#468);
#479=PRODUCT_DEFINITION_CONTEXT('part definition',#484,'design');
#480=PRODUCT_DEFINITION('Pi\X\E8ce2','Pi\X\E8ce2',#481,#479);
#481=PRODUCT_DEFINITION_FORMATION('',$,#486);
#482=PRODUCT_RELATED_PRODUCT_CATEGORY('Pi\X\E8ce2','Pi\X\E8ce2',(#486));
#483=APPLICATION_PROTOCOL_DEFINITION('international standard',
'automotive_design',2009,#484);
#484=APPLICATION_CONTEXT(
'Core Data for Automotive Mechanical Design Process');
#485=PRODUCT_CONTEXT('part definition',#484,'mechanical');
#486=PRODUCT('Pi\X\E8ce2','Pi\X\E8ce2',$,(#485));
#487=PRESENTATION_STYLE_ASSIGNMENT((#489));
#488=PRESENTATION_STYLE_ASSIGNMENT((#490));
#489=SURFACE_STYLE_USAGE(.BOTH.,#491);
#490=SURFACE_STYLE_USAGE(.BOTH.,#492);
#491=SURFACE_SIDE_STYLE('',(#493));
#492=SURFACE_SIDE_STYLE('',(#494));
#493=SURFACE_STYLE_FILL_AREA(#495);
#494=SURFACE_STYLE_FILL_AREA(#496);
#495=FILL_AREA_STYLE('',(#497));
#496=FILL_AREA_STYLE('',(#498));
#497=FILL_AREA_STYLE_COLOUR('',#499);
#498=FILL_AREA_STYLE_COLOUR('',#500);
#499=COLOUR_RGB('',0.749019607843137,0.749019607843137,0.749019607843137);
#500=COLOUR_RGB('',0.752941176470588,0.752941176470588,0.752941176470588);
ENDSEC;
END-ISO-10303-21;
