ISO-10303-21;
HEADER;
/* Generated by software containing ST-Developer
 * from STEP Tools, Inc. (www.steptools.com) 
 */

FILE_DESCRIPTION(
/* description */ (''),
/* implementation_level */ '2;1');

FILE_NAME(
/* name */ 'R:\\BE\\Transfert-temporaire\\66.stp',
/* time_stamp */ '2019-08-07T14:54:02+02:00',
/* author */ ('marc'),
/* organization */ (''),
/* preprocessor_version */ 'ST-DEVELOPER v17.2',
/* originating_system */ 'Autodesk Inventor 2019',
/* authorisation */ '');

FILE_SCHEMA (('AUTOMOTIVE_DESIGN { 1 0 10303 214 3 1 1 }'));
ENDSEC;

DATA;
#10=MECHANICAL_DESIGN_GEOMETRIC_PRESENTATION_REPRESENTATION('',(#13),#434);
#11=SHAPE_REPRESENTATION_RELATIONSHIP('SRR','None',#441,#12);
#12=ADVANCED_BREP_SHAPE_REPRESENTATION('',(#14),#433);
#13=STYLED_ITEM('',(#450),#14);
#14=MANIFOLD_SOLID_BREP('Solide1',#247);
#15=FACE_BOUND('',#52,.T.);
#16=FACE_BOUND('',#53,.T.);
#17=FACE_BOUND('',#54,.T.);
#18=FACE_BOUND('',#55,.T.);
#19=FACE_BOUND('',#56,.T.);
#20=FACE_BOUND('',#58,.T.);
#21=FACE_BOUND('',#59,.T.);
#22=FACE_BOUND('',#60,.T.);
#23=FACE_BOUND('',#61,.T.);
#24=FACE_BOUND('',#62,.T.);
#25=PLANE('',#287);
#26=PLANE('',#288);
#27=PLANE('',#289);
#28=PLANE('',#290);
#29=PLANE('',#291);
#30=PLANE('',#292);
#31=FACE_OUTER_BOUND('',#42,.T.);
#32=FACE_OUTER_BOUND('',#43,.T.);
#33=FACE_OUTER_BOUND('',#44,.T.);
#34=FACE_OUTER_BOUND('',#45,.T.);
#35=FACE_OUTER_BOUND('',#46,.T.);
#36=FACE_OUTER_BOUND('',#47,.T.);
#37=FACE_OUTER_BOUND('',#48,.T.);
#38=FACE_OUTER_BOUND('',#49,.T.);
#39=FACE_OUTER_BOUND('',#50,.T.);
#40=FACE_OUTER_BOUND('',#51,.T.);
#41=FACE_OUTER_BOUND('',#57,.T.);
#42=EDGE_LOOP('',(#167,#168,#169,#170,#171));
#43=EDGE_LOOP('',(#172,#173,#174,#175,#176));
#44=EDGE_LOOP('',(#177,#178,#179,#180,#181));
#45=EDGE_LOOP('',(#182,#183,#184,#185,#186));
#46=EDGE_LOOP('',(#187,#188,#189,#190,#191));
#47=EDGE_LOOP('',(#192,#193,#194,#195));
#48=EDGE_LOOP('',(#196,#197,#198,#199));
#49=EDGE_LOOP('',(#200,#201,#202,#203));
#50=EDGE_LOOP('',(#204,#205,#206,#207));
#51=EDGE_LOOP('',(#208,#209,#210,#211));
#52=EDGE_LOOP('',(#212,#213));
#53=EDGE_LOOP('',(#214,#215));
#54=EDGE_LOOP('',(#216,#217));
#55=EDGE_LOOP('',(#218,#219));
#56=EDGE_LOOP('',(#220,#221));
#57=EDGE_LOOP('',(#222,#223,#224,#225));
#58=EDGE_LOOP('',(#226));
#59=EDGE_LOOP('',(#227));
#60=EDGE_LOOP('',(#228));
#61=EDGE_LOOP('',(#229));
#62=EDGE_LOOP('',(#230));
#63=LINE('',#371,#80);
#64=LINE('',#379,#81);
#65=LINE('',#387,#82);
#66=LINE('',#395,#83);
#67=LINE('',#403,#84);
#68=LINE('',#408,#85);
#69=LINE('',#410,#86);
#70=LINE('',#412,#87);
#71=LINE('',#413,#88);
#72=LINE('',#416,#89);
#73=LINE('',#418,#90);
#74=LINE('',#419,#91);
#75=LINE('',#422,#92);
#76=LINE('',#424,#93);
#77=LINE('',#425,#94);
#78=LINE('',#427,#95);
#79=LINE('',#428,#96);
#80=VECTOR('',#301,5.9175);
#81=VECTOR('',#310,4.25);
#82=VECTOR('',#319,4.25);
#83=VECTOR('',#328,4.25);
#84=VECTOR('',#337,4.25);
#85=VECTOR('',#342,10.);
#86=VECTOR('',#343,10.);
#87=VECTOR('',#344,10.);
#88=VECTOR('',#345,10.);
#89=VECTOR('',#348,10.);
#90=VECTOR('',#349,10.);
#91=VECTOR('',#350,10.);
#92=VECTOR('',#353,10.);
#93=VECTOR('',#354,10.);
#94=VECTOR('',#355,10.);
#95=VECTOR('',#358,10.);
#96=VECTOR('',#359,10.);
#97=CIRCLE('',#268,5.9175);
#98=CIRCLE('',#269,5.9175);
#99=CIRCLE('',#270,5.9175);
#100=CIRCLE('',#272,4.25);
#101=CIRCLE('',#273,4.25);
#102=CIRCLE('',#274,4.25);
#103=CIRCLE('',#276,4.25);
#104=CIRCLE('',#277,4.25);
#105=CIRCLE('',#278,4.25);
#106=CIRCLE('',#280,4.25);
#107=CIRCLE('',#281,4.25);
#108=CIRCLE('',#282,4.25);
#109=CIRCLE('',#284,4.25);
#110=CIRCLE('',#285,4.25);
#111=CIRCLE('',#286,4.25);
#112=VERTEX_POINT('',#366);
#113=VERTEX_POINT('',#367);
#114=VERTEX_POINT('',#370);
#115=VERTEX_POINT('',#374);
#116=VERTEX_POINT('',#375);
#117=VERTEX_POINT('',#378);
#118=VERTEX_POINT('',#382);
#119=VERTEX_POINT('',#383);
#120=VERTEX_POINT('',#386);
#121=VERTEX_POINT('',#390);
#122=VERTEX_POINT('',#391);
#123=VERTEX_POINT('',#394);
#124=VERTEX_POINT('',#398);
#125=VERTEX_POINT('',#399);
#126=VERTEX_POINT('',#402);
#127=VERTEX_POINT('',#406);
#128=VERTEX_POINT('',#407);
#129=VERTEX_POINT('',#409);
#130=VERTEX_POINT('',#411);
#131=VERTEX_POINT('',#415);
#132=VERTEX_POINT('',#417);
#133=VERTEX_POINT('',#421);
#134=VERTEX_POINT('',#423);
#135=EDGE_CURVE('',#112,#113,#97,.T.);
#136=EDGE_CURVE('',#113,#112,#98,.T.);
#137=EDGE_CURVE('',#113,#114,#63,.T.);
#138=EDGE_CURVE('',#114,#114,#99,.T.);
#139=EDGE_CURVE('',#115,#116,#100,.T.);
#140=EDGE_CURVE('',#116,#115,#101,.T.);
#141=EDGE_CURVE('',#116,#117,#64,.T.);
#142=EDGE_CURVE('',#117,#117,#102,.T.);
#143=EDGE_CURVE('',#118,#119,#103,.T.);
#144=EDGE_CURVE('',#119,#118,#104,.T.);
#145=EDGE_CURVE('',#119,#120,#65,.T.);
#146=EDGE_CURVE('',#120,#120,#105,.T.);
#147=EDGE_CURVE('',#121,#122,#106,.T.);
#148=EDGE_CURVE('',#122,#121,#107,.T.);
#149=EDGE_CURVE('',#122,#123,#66,.T.);
#150=EDGE_CURVE('',#123,#123,#108,.T.);
#151=EDGE_CURVE('',#124,#125,#109,.T.);
#152=EDGE_CURVE('',#125,#124,#110,.T.);
#153=EDGE_CURVE('',#125,#126,#67,.T.);
#154=EDGE_CURVE('',#126,#126,#111,.T.);
#155=EDGE_CURVE('',#127,#128,#68,.T.);
#156=EDGE_CURVE('',#129,#128,#69,.T.);
#157=EDGE_CURVE('',#130,#129,#70,.T.);
#158=EDGE_CURVE('',#130,#127,#71,.T.);
#159=EDGE_CURVE('',#128,#131,#72,.T.);
#160=EDGE_CURVE('',#132,#131,#73,.T.);
#161=EDGE_CURVE('',#129,#132,#74,.T.);
#162=EDGE_CURVE('',#131,#133,#75,.T.);
#163=EDGE_CURVE('',#134,#133,#76,.T.);
#164=EDGE_CURVE('',#132,#134,#77,.T.);
#165=EDGE_CURVE('',#133,#127,#78,.T.);
#166=EDGE_CURVE('',#134,#130,#79,.T.);
#167=ORIENTED_EDGE('',*,*,#135,.F.);
#168=ORIENTED_EDGE('',*,*,#136,.F.);
#169=ORIENTED_EDGE('',*,*,#137,.T.);
#170=ORIENTED_EDGE('',*,*,#138,.F.);
#171=ORIENTED_EDGE('',*,*,#137,.F.);
#172=ORIENTED_EDGE('',*,*,#139,.F.);
#173=ORIENTED_EDGE('',*,*,#140,.F.);
#174=ORIENTED_EDGE('',*,*,#141,.T.);
#175=ORIENTED_EDGE('',*,*,#142,.F.);
#176=ORIENTED_EDGE('',*,*,#141,.F.);
#177=ORIENTED_EDGE('',*,*,#143,.F.);
#178=ORIENTED_EDGE('',*,*,#144,.F.);
#179=ORIENTED_EDGE('',*,*,#145,.T.);
#180=ORIENTED_EDGE('',*,*,#146,.F.);
#181=ORIENTED_EDGE('',*,*,#145,.F.);
#182=ORIENTED_EDGE('',*,*,#147,.F.);
#183=ORIENTED_EDGE('',*,*,#148,.F.);
#184=ORIENTED_EDGE('',*,*,#149,.T.);
#185=ORIENTED_EDGE('',*,*,#150,.F.);
#186=ORIENTED_EDGE('',*,*,#149,.F.);
#187=ORIENTED_EDGE('',*,*,#151,.F.);
#188=ORIENTED_EDGE('',*,*,#152,.F.);
#189=ORIENTED_EDGE('',*,*,#153,.T.);
#190=ORIENTED_EDGE('',*,*,#154,.F.);
#191=ORIENTED_EDGE('',*,*,#153,.F.);
#192=ORIENTED_EDGE('',*,*,#155,.T.);
#193=ORIENTED_EDGE('',*,*,#156,.F.);
#194=ORIENTED_EDGE('',*,*,#157,.F.);
#195=ORIENTED_EDGE('',*,*,#158,.T.);
#196=ORIENTED_EDGE('',*,*,#159,.T.);
#197=ORIENTED_EDGE('',*,*,#160,.F.);
#198=ORIENTED_EDGE('',*,*,#161,.F.);
#199=ORIENTED_EDGE('',*,*,#156,.T.);
#200=ORIENTED_EDGE('',*,*,#162,.T.);
#201=ORIENTED_EDGE('',*,*,#163,.F.);
#202=ORIENTED_EDGE('',*,*,#164,.F.);
#203=ORIENTED_EDGE('',*,*,#160,.T.);
#204=ORIENTED_EDGE('',*,*,#165,.T.);
#205=ORIENTED_EDGE('',*,*,#158,.F.);
#206=ORIENTED_EDGE('',*,*,#166,.F.);
#207=ORIENTED_EDGE('',*,*,#163,.T.);
#208=ORIENTED_EDGE('',*,*,#155,.F.);
#209=ORIENTED_EDGE('',*,*,#165,.F.);
#210=ORIENTED_EDGE('',*,*,#162,.F.);
#211=ORIENTED_EDGE('',*,*,#159,.F.);
#212=ORIENTED_EDGE('',*,*,#135,.T.);
#213=ORIENTED_EDGE('',*,*,#136,.T.);
#214=ORIENTED_EDGE('',*,*,#139,.T.);
#215=ORIENTED_EDGE('',*,*,#140,.T.);
#216=ORIENTED_EDGE('',*,*,#143,.T.);
#217=ORIENTED_EDGE('',*,*,#144,.T.);
#218=ORIENTED_EDGE('',*,*,#147,.T.);
#219=ORIENTED_EDGE('',*,*,#148,.T.);
#220=ORIENTED_EDGE('',*,*,#151,.T.);
#221=ORIENTED_EDGE('',*,*,#152,.T.);
#222=ORIENTED_EDGE('',*,*,#166,.T.);
#223=ORIENTED_EDGE('',*,*,#157,.T.);
#224=ORIENTED_EDGE('',*,*,#161,.T.);
#225=ORIENTED_EDGE('',*,*,#164,.T.);
#226=ORIENTED_EDGE('',*,*,#138,.T.);
#227=ORIENTED_EDGE('',*,*,#142,.T.);
#228=ORIENTED_EDGE('',*,*,#146,.T.);
#229=ORIENTED_EDGE('',*,*,#150,.T.);
#230=ORIENTED_EDGE('',*,*,#154,.T.);
#231=CYLINDRICAL_SURFACE('',#267,5.9175);
#232=CYLINDRICAL_SURFACE('',#271,4.25);
#233=CYLINDRICAL_SURFACE('',#275,4.25);
#234=CYLINDRICAL_SURFACE('',#279,4.25);
#235=CYLINDRICAL_SURFACE('',#283,4.25);
#236=ADVANCED_FACE('',(#31),#231,.F.);
#237=ADVANCED_FACE('',(#32),#232,.F.);
#238=ADVANCED_FACE('',(#33),#233,.F.);
#239=ADVANCED_FACE('',(#34),#234,.F.);
#240=ADVANCED_FACE('',(#35),#235,.F.);
#241=ADVANCED_FACE('',(#36),#25,.T.);
#242=ADVANCED_FACE('',(#37),#26,.T.);
#243=ADVANCED_FACE('',(#38),#27,.T.);
#244=ADVANCED_FACE('',(#39),#28,.T.);
#245=ADVANCED_FACE('',(#40,#15,#16,#17,#18,#19),#29,.T.);
#246=ADVANCED_FACE('',(#41,#20,#21,#22,#23,#24),#30,.F.);
#247=CLOSED_SHELL('',(#236,#237,#238,#239,#240,#241,#242,#243,#244,#245,
#246));
#248=DERIVED_UNIT_ELEMENT(#250,1.);
#249=DERIVED_UNIT_ELEMENT(#436,3.);
#250=(
MASS_UNIT()
NAMED_UNIT(*)
SI_UNIT($,.GRAM.)
);
#251=DERIVED_UNIT((#248,#249));
#252=MEASURE_REPRESENTATION_ITEM('density measure',
POSITIVE_RATIO_MEASURE(1.),#251);
#253=PROPERTY_DEFINITION_REPRESENTATION(#258,#255);
#254=PROPERTY_DEFINITION_REPRESENTATION(#259,#256);
#255=REPRESENTATION('material name',(#257),#433);
#256=REPRESENTATION('density',(#252),#433);
#257=DESCRIPTIVE_REPRESENTATION_ITEM('G\X\E9n\X\E9rique','G\X\E9n\X\E9
rique');
#258=PROPERTY_DEFINITION('material property','material name',#443);
#259=PROPERTY_DEFINITION('material property','density of part',#443);
#260=DATE_TIME_ROLE('creation_date');
#261=APPLIED_DATE_AND_TIME_ASSIGNMENT(#262,#260,(#443));
#262=DATE_AND_TIME(#263,#264);
#263=CALENDAR_DATE(2019,6,8);
#264=LOCAL_TIME(22,0,0.,#265);
#265=COORDINATED_UNIVERSAL_TIME_OFFSET(0,0,.BEHIND.);
#266=AXIS2_PLACEMENT_3D('placement',#364,#293,#294);
#267=AXIS2_PLACEMENT_3D('',#365,#295,#296);
#268=AXIS2_PLACEMENT_3D('',#368,#297,#298);
#269=AXIS2_PLACEMENT_3D('',#369,#299,#300);
#270=AXIS2_PLACEMENT_3D('',#372,#302,#303);
#271=AXIS2_PLACEMENT_3D('',#373,#304,#305);
#272=AXIS2_PLACEMENT_3D('',#376,#306,#307);
#273=AXIS2_PLACEMENT_3D('',#377,#308,#309);
#274=AXIS2_PLACEMENT_3D('',#380,#311,#312);
#275=AXIS2_PLACEMENT_3D('',#381,#313,#314);
#276=AXIS2_PLACEMENT_3D('',#384,#315,#316);
#277=AXIS2_PLACEMENT_3D('',#385,#317,#318);
#278=AXIS2_PLACEMENT_3D('',#388,#320,#321);
#279=AXIS2_PLACEMENT_3D('',#389,#322,#323);
#280=AXIS2_PLACEMENT_3D('',#392,#324,#325);
#281=AXIS2_PLACEMENT_3D('',#393,#326,#327);
#282=AXIS2_PLACEMENT_3D('',#396,#329,#330);
#283=AXIS2_PLACEMENT_3D('',#397,#331,#332);
#284=AXIS2_PLACEMENT_3D('',#400,#333,#334);
#285=AXIS2_PLACEMENT_3D('',#401,#335,#336);
#286=AXIS2_PLACEMENT_3D('',#404,#338,#339);
#287=AXIS2_PLACEMENT_3D('',#405,#340,#341);
#288=AXIS2_PLACEMENT_3D('',#414,#346,#347);
#289=AXIS2_PLACEMENT_3D('',#420,#351,#352);
#290=AXIS2_PLACEMENT_3D('',#426,#356,#357);
#291=AXIS2_PLACEMENT_3D('',#429,#360,#361);
#292=AXIS2_PLACEMENT_3D('',#430,#362,#363);
#293=DIRECTION('axis',(0.,0.,1.));
#294=DIRECTION('refdir',(1.,0.,0.));
#295=DIRECTION('center_axis',(0.,0.,1.));
#296=DIRECTION('ref_axis',(1.,0.,0.));
#297=DIRECTION('center_axis',(0.,0.,-1.));
#298=DIRECTION('ref_axis',(1.,0.,0.));
#299=DIRECTION('center_axis',(0.,0.,-1.));
#300=DIRECTION('ref_axis',(1.,0.,0.));
#301=DIRECTION('',(0.,0.,-1.));
#302=DIRECTION('center_axis',(0.,0.,1.));
#303=DIRECTION('ref_axis',(1.,0.,0.));
#304=DIRECTION('center_axis',(0.,0.,1.));
#305=DIRECTION('ref_axis',(1.,0.,0.));
#306=DIRECTION('center_axis',(0.,0.,-1.));
#307=DIRECTION('ref_axis',(1.,0.,0.));
#308=DIRECTION('center_axis',(0.,0.,-1.));
#309=DIRECTION('ref_axis',(1.,0.,0.));
#310=DIRECTION('',(0.,0.,-1.));
#311=DIRECTION('center_axis',(0.,0.,1.));
#312=DIRECTION('ref_axis',(1.,0.,0.));
#313=DIRECTION('center_axis',(0.,0.,1.));
#314=DIRECTION('ref_axis',(1.,0.,0.));
#315=DIRECTION('center_axis',(0.,0.,-1.));
#316=DIRECTION('ref_axis',(1.,0.,0.));
#317=DIRECTION('center_axis',(0.,0.,-1.));
#318=DIRECTION('ref_axis',(1.,0.,0.));
#319=DIRECTION('',(0.,0.,-1.));
#320=DIRECTION('center_axis',(0.,0.,1.));
#321=DIRECTION('ref_axis',(1.,0.,0.));
#322=DIRECTION('center_axis',(0.,0.,1.));
#323=DIRECTION('ref_axis',(1.,0.,0.));
#324=DIRECTION('center_axis',(0.,0.,-1.));
#325=DIRECTION('ref_axis',(1.,0.,0.));
#326=DIRECTION('center_axis',(0.,0.,-1.));
#327=DIRECTION('ref_axis',(1.,0.,0.));
#328=DIRECTION('',(0.,0.,-1.));
#329=DIRECTION('center_axis',(0.,0.,1.));
#330=DIRECTION('ref_axis',(1.,0.,0.));
#331=DIRECTION('center_axis',(0.,0.,1.));
#332=DIRECTION('ref_axis',(1.,0.,0.));
#333=DIRECTION('center_axis',(0.,0.,-1.));
#334=DIRECTION('ref_axis',(1.,0.,0.));
#335=DIRECTION('center_axis',(0.,0.,-1.));
#336=DIRECTION('ref_axis',(1.,0.,0.));
#337=DIRECTION('',(0.,0.,-1.));
#338=DIRECTION('center_axis',(0.,0.,1.));
#339=DIRECTION('ref_axis',(1.,0.,0.));
#340=DIRECTION('center_axis',(1.,0.,0.));
#341=DIRECTION('ref_axis',(0.,0.,-1.));
#342=DIRECTION('',(0.,-1.,0.));
#343=DIRECTION('',(0.,0.,1.));
#344=DIRECTION('',(0.,-1.,0.));
#345=DIRECTION('',(0.,0.,1.));
#346=DIRECTION('center_axis',(0.,-1.,0.));
#347=DIRECTION('ref_axis',(0.,0.,-1.));
#348=DIRECTION('',(-1.,0.,0.));
#349=DIRECTION('',(0.,0.,1.));
#350=DIRECTION('',(-1.,0.,0.));
#351=DIRECTION('center_axis',(-1.,0.,0.));
#352=DIRECTION('ref_axis',(0.,0.,1.));
#353=DIRECTION('',(0.,1.,0.));
#354=DIRECTION('',(0.,0.,1.));
#355=DIRECTION('',(0.,1.,0.));
#356=DIRECTION('center_axis',(0.,1.,0.));
#357=DIRECTION('ref_axis',(0.,0.,1.));
#358=DIRECTION('',(1.,0.,0.));
#359=DIRECTION('',(1.,0.,0.));
#360=DIRECTION('center_axis',(0.,0.,1.));
#361=DIRECTION('ref_axis',(1.,0.,0.));
#362=DIRECTION('center_axis',(0.,0.,1.));
#363=DIRECTION('ref_axis',(1.,0.,0.));
#364=CARTESIAN_POINT('',(0.,0.,0.));
#365=CARTESIAN_POINT('Origin',(0.,-1.33226762955019E-14,-274.292401598059));
#366=CARTESIAN_POINT('',(5.9175,-1.33226762955019E-14,8.));
#367=CARTESIAN_POINT('',(-5.9175,-1.40473610388973E-14,8.00000000000001));
#368=CARTESIAN_POINT('Origin',(0.,-1.33226762955019E-14,8.00000000000001));
#369=CARTESIAN_POINT('Origin',(0.,-1.33226762955019E-14,8.00000000000001));
#370=CARTESIAN_POINT('',(-5.9175,-1.40473610388973E-14,0.));
#371=CARTESIAN_POINT('',(-5.9175,-1.40473610388973E-14,-274.292401598059));
#372=CARTESIAN_POINT('Origin',(0.,-1.33226762955019E-14,0.));
#373=CARTESIAN_POINT('Origin',(-42.,3.5,-274.292401598059));
#374=CARTESIAN_POINT('',(-37.75,3.5,8.));
#375=CARTESIAN_POINT('',(-46.25,3.5,8.00000000000001));
#376=CARTESIAN_POINT('Origin',(-42.,3.5,8.00000000000001));
#377=CARTESIAN_POINT('Origin',(-42.,3.5,8.00000000000001));
#378=CARTESIAN_POINT('',(-46.25,3.5,0.));
#379=CARTESIAN_POINT('',(-46.25,3.5,-274.292401598059));
#380=CARTESIAN_POINT('Origin',(-42.,3.5,0.));
#381=CARTESIAN_POINT('Origin',(122.,3.5,-274.292401598059));
#382=CARTESIAN_POINT('',(126.25,3.5,8.));
#383=CARTESIAN_POINT('',(117.75,3.5,8.00000000000001));
#384=CARTESIAN_POINT('Origin',(122.,3.5,8.00000000000001));
#385=CARTESIAN_POINT('Origin',(122.,3.5,8.00000000000001));
#386=CARTESIAN_POINT('',(117.75,3.5,0.));
#387=CARTESIAN_POINT('',(117.75,3.5,-274.292401598059));
#388=CARTESIAN_POINT('Origin',(122.,3.5,0.));
#389=CARTESIAN_POINT('Origin',(42.,-3.50000000000001,-274.292401598059));
#390=CARTESIAN_POINT('',(46.25,-3.50000000000001,8.));
#391=CARTESIAN_POINT('',(37.75,-3.50000000000001,8.00000000000001));
#392=CARTESIAN_POINT('Origin',(42.,-3.50000000000001,8.00000000000001));
#393=CARTESIAN_POINT('Origin',(42.,-3.50000000000001,8.00000000000001));
#394=CARTESIAN_POINT('',(37.75,-3.50000000000001,0.));
#395=CARTESIAN_POINT('',(37.75,-3.50000000000001,-274.292401598059));
#396=CARTESIAN_POINT('Origin',(42.,-3.50000000000001,0.));
#397=CARTESIAN_POINT('Origin',(-122.,-3.50000000000003,-274.292401598059));
#398=CARTESIAN_POINT('',(-117.75,-3.50000000000003,8.));
#399=CARTESIAN_POINT('',(-126.25,-3.50000000000003,8.00000000000001));
#400=CARTESIAN_POINT('Origin',(-122.,-3.50000000000003,8.00000000000001));
#401=CARTESIAN_POINT('Origin',(-122.,-3.50000000000003,8.00000000000001));
#402=CARTESIAN_POINT('',(-126.25,-3.50000000000003,0.));
#403=CARTESIAN_POINT('',(-126.25,-3.50000000000003,-274.292401598059));
#404=CARTESIAN_POINT('Origin',(-122.,-3.50000000000003,0.));
#405=CARTESIAN_POINT('Origin',(140.,17.5,0.));
#406=CARTESIAN_POINT('',(140.,17.5,8.));
#407=CARTESIAN_POINT('',(140.,-17.5,8.));
#408=CARTESIAN_POINT('',(140.,17.5,8.));
#409=CARTESIAN_POINT('',(140.,-17.5,0.));
#410=CARTESIAN_POINT('',(140.,-17.5,0.));
#411=CARTESIAN_POINT('',(140.,17.5,0.));
#412=CARTESIAN_POINT('',(140.,17.5,0.));
#413=CARTESIAN_POINT('',(140.,17.5,0.));
#414=CARTESIAN_POINT('Origin',(140.,-17.5,0.));
#415=CARTESIAN_POINT('',(-140.,-17.5,8.));
#416=CARTESIAN_POINT('',(140.,-17.5,8.));
#417=CARTESIAN_POINT('',(-140.,-17.5,0.));
#418=CARTESIAN_POINT('',(-140.,-17.5,0.));
#419=CARTESIAN_POINT('',(140.,-17.5,0.));
#420=CARTESIAN_POINT('Origin',(-140.,-17.5,0.));
#421=CARTESIAN_POINT('',(-140.,17.5,8.));
#422=CARTESIAN_POINT('',(-140.,-17.5,8.));
#423=CARTESIAN_POINT('',(-140.,17.5,0.));
#424=CARTESIAN_POINT('',(-140.,17.5,0.));
#425=CARTESIAN_POINT('',(-140.,-17.5,0.));
#426=CARTESIAN_POINT('Origin',(-140.,17.5,0.));
#427=CARTESIAN_POINT('',(-140.,17.5,8.));
#428=CARTESIAN_POINT('',(-140.,17.5,0.));
#429=CARTESIAN_POINT('Origin',(0.,6.72862439166761E-17,8.));
#430=CARTESIAN_POINT('Origin',(0.,-6.72862439166761E-17,0.));
#431=UNCERTAINTY_MEASURE_WITH_UNIT(LENGTH_MEASURE(0.01),#435,
'DISTANCE_ACCURACY_VALUE',
'Maximum model space distance between geometric entities at asserted c
onnectivities');
#432=UNCERTAINTY_MEASURE_WITH_UNIT(LENGTH_MEASURE(0.01),#435,
'DISTANCE_ACCURACY_VALUE',
'Maximum model space distance between geometric entities at asserted c
onnectivities');
#433=(
GEOMETRIC_REPRESENTATION_CONTEXT(3)
GLOBAL_UNCERTAINTY_ASSIGNED_CONTEXT((#431))
GLOBAL_UNIT_ASSIGNED_CONTEXT((#435,#437,#438))
REPRESENTATION_CONTEXT('','3D')
);
#434=(
GEOMETRIC_REPRESENTATION_CONTEXT(3)
GLOBAL_UNCERTAINTY_ASSIGNED_CONTEXT((#432))
GLOBAL_UNIT_ASSIGNED_CONTEXT((#435,#437,#438))
REPRESENTATION_CONTEXT('','3D')
);
#435=(
LENGTH_UNIT()
NAMED_UNIT(*)
SI_UNIT(.MILLI.,.METRE.)
);
#436=(
LENGTH_UNIT()
NAMED_UNIT(*)
SI_UNIT(.CENTI.,.METRE.)
);
#437=(
NAMED_UNIT(*)
PLANE_ANGLE_UNIT()
SI_UNIT($,.RADIAN.)
);
#438=(
NAMED_UNIT(*)
SI_UNIT($,.STERADIAN.)
SOLID_ANGLE_UNIT()
);
#439=SHAPE_DEFINITION_REPRESENTATION(#440,#441);
#440=PRODUCT_DEFINITION_SHAPE('',$,#443);
#441=SHAPE_REPRESENTATION('',(#266),#433);
#442=PRODUCT_DEFINITION_CONTEXT('part definition',#447,'design');
#443=PRODUCT_DEFINITION('0066-7','66',#444,#442);
#444=PRODUCT_DEFINITION_FORMATION('',$,#449);
#445=PRODUCT_RELATED_PRODUCT_CATEGORY('66','66',(#449));
#446=APPLICATION_PROTOCOL_DEFINITION('international standard',
'automotive_design',2009,#447);
#447=APPLICATION_CONTEXT(
'Core Data for Automotive Mechanical Design Process');
#448=PRODUCT_CONTEXT('part definition',#447,'mechanical');
#449=PRODUCT('0066-7','66',$,(#448));
#450=PRESENTATION_STYLE_ASSIGNMENT((#451));
#451=SURFACE_STYLE_USAGE(.BOTH.,#454);
#452=SURFACE_STYLE_RENDERING_WITH_PROPERTIES($,#458,(#453));
#453=SURFACE_STYLE_TRANSPARENT(0.);
#454=SURFACE_SIDE_STYLE('',(#455,#452));
#455=SURFACE_STYLE_FILL_AREA(#456);
#456=FILL_AREA_STYLE('',(#457));
#457=FILL_AREA_STYLE_COLOUR('',#458);
#458=COLOUR_RGB('',0.752941176470588,0.752941176470588,0.752941176470588);
ENDSEC;
END-ISO-10303-21;
