ISO-10303-21;
HEADER;
/* Generated by software containing ST-Developer
 * from STEP Tools, Inc. (www.steptools.com) 
 */

FILE_DESCRIPTION(
/* description */ (''),
/* implementation_level */ '2;1');

FILE_NAME(
/* name */ 'R:\\BE\\Inventor\\PRODUITS\\0065.stp',
/* time_stamp */ '2020-04-30T08:38:31+02:00',
/* author */ ('Giuliano'),
/* organization */ (''),
/* preprocessor_version */ 'ST-DEVELOPER v17.2',
/* originating_system */ 'Autodesk Inventor 2019',
/* authorisation */ '');

FILE_SCHEMA (('AUTOMOTIVE_DESIGN { 1 0 10303 214 3 1 1 }'));
ENDSEC;

DATA;
#10=MECHANICAL_DESIGN_GEOMETRIC_PRESENTATION_REPRESENTATION('',(#13),#601);
#11=SHAPE_REPRESENTATION_RELATIONSHIP('SRR','None',#608,#12);
#12=ADVANCED_BREP_SHAPE_REPRESENTATION('',(#14),#600);
#13=STYLED_ITEM('',(#617),#14);
#14=MANIFOLD_SOLID_BREP('Solide1',#351);
#15=FACE_BOUND('',#58,.T.);
#16=FACE_BOUND('',#65,.T.);
#17=CIRCLE('',#373,7.5);
#18=CIRCLE('',#374,7.5);
#19=CIRCLE('',#377,7.5);
#20=CIRCLE('',#378,7.5);
#21=CIRCLE('',#381,4.);
#22=CIRCLE('',#382,4.);
#23=CIRCLE('',#387,10.);
#24=CIRCLE('',#388,10.);
#25=CIRCLE('',#391,10.);
#26=CIRCLE('',#392,10.);
#27=CIRCLE('',#397,4.);
#28=CIRCLE('',#398,4.);
#29=CYLINDRICAL_SURFACE('',#372,7.5);
#30=CYLINDRICAL_SURFACE('',#376,7.5);
#31=CYLINDRICAL_SURFACE('',#380,4.);
#32=CYLINDRICAL_SURFACE('',#386,10.);
#33=CYLINDRICAL_SURFACE('',#390,10.);
#34=CYLINDRICAL_SURFACE('',#396,4.);
#35=FACE_OUTER_BOUND('',#53,.T.);
#36=FACE_OUTER_BOUND('',#54,.T.);
#37=FACE_OUTER_BOUND('',#55,.T.);
#38=FACE_OUTER_BOUND('',#56,.T.);
#39=FACE_OUTER_BOUND('',#57,.T.);
#40=FACE_OUTER_BOUND('',#59,.T.);
#41=FACE_OUTER_BOUND('',#60,.T.);
#42=FACE_OUTER_BOUND('',#61,.T.);
#43=FACE_OUTER_BOUND('',#62,.T.);
#44=FACE_OUTER_BOUND('',#63,.T.);
#45=FACE_OUTER_BOUND('',#64,.T.);
#46=FACE_OUTER_BOUND('',#66,.T.);
#47=FACE_OUTER_BOUND('',#67,.T.);
#48=FACE_OUTER_BOUND('',#68,.T.);
#49=FACE_OUTER_BOUND('',#69,.T.);
#50=FACE_OUTER_BOUND('',#70,.T.);
#51=FACE_OUTER_BOUND('',#71,.T.);
#52=FACE_OUTER_BOUND('',#72,.T.);
#53=EDGE_LOOP('',(#225,#226,#227,#228));
#54=EDGE_LOOP('',(#229,#230,#231,#232));
#55=EDGE_LOOP('',(#233,#234,#235,#236));
#56=EDGE_LOOP('',(#237,#238,#239,#240));
#57=EDGE_LOOP('',(#241,#242,#243,#244));
#58=EDGE_LOOP('',(#245,#246,#247,#248));
#59=EDGE_LOOP('',(#249,#250,#251,#252));
#60=EDGE_LOOP('',(#253,#254,#255,#256));
#61=EDGE_LOOP('',(#257,#258,#259,#260));
#62=EDGE_LOOP('',(#261,#262,#263,#264));
#63=EDGE_LOOP('',(#265,#266,#267,#268));
#64=EDGE_LOOP('',(#269,#270,#271,#272));
#65=EDGE_LOOP('',(#273,#274,#275,#276));
#66=EDGE_LOOP('',(#277,#278,#279,#280));
#67=EDGE_LOOP('',(#281,#282,#283,#284));
#68=EDGE_LOOP('',(#285,#286,#287,#288));
#69=EDGE_LOOP('',(#289,#290,#291,#292));
#70=EDGE_LOOP('',(#293,#294,#295,#296));
#71=EDGE_LOOP('',(#297,#298,#299,#300,#301,#302,#303,#304,#305,#306,#307,
#308));
#72=EDGE_LOOP('',(#309,#310,#311,#312,#313,#314,#315,#316,#317,#318,#319,
#320));
#73=LINE('',#503,#109);
#74=LINE('',#505,#110);
#75=LINE('',#507,#111);
#76=LINE('',#508,#112);
#77=LINE('',#514,#113);
#78=LINE('',#517,#114);
#79=LINE('',#519,#115);
#80=LINE('',#520,#116);
#81=LINE('',#527,#117);
#82=LINE('',#529,#118);
#83=LINE('',#531,#119);
#84=LINE('',#532,#120);
#85=LINE('',#537,#121);
#86=LINE('',#541,#122);
#87=LINE('',#543,#123);
#88=LINE('',#544,#124);
#89=LINE('',#547,#125);
#90=LINE('',#549,#126);
#91=LINE('',#550,#127);
#92=LINE('',#553,#128);
#93=LINE('',#555,#129);
#94=LINE('',#556,#130);
#95=LINE('',#561,#131);
#96=LINE('',#565,#132);
#97=LINE('',#567,#133);
#98=LINE('',#568,#134);
#99=LINE('',#573,#135);
#100=LINE('',#577,#136);
#101=LINE('',#579,#137);
#102=LINE('',#580,#138);
#103=LINE('',#583,#139);
#104=LINE('',#585,#140);
#105=LINE('',#586,#141);
#106=LINE('',#589,#142);
#107=LINE('',#591,#143);
#108=LINE('',#592,#144);
#109=VECTOR('',#405,10.);
#110=VECTOR('',#406,10.);
#111=VECTOR('',#407,10.);
#112=VECTOR('',#408,10.);
#113=VECTOR('',#415,10.);
#114=VECTOR('',#418,10.);
#115=VECTOR('',#419,10.);
#116=VECTOR('',#420,10.);
#117=VECTOR('',#429,10.);
#118=VECTOR('',#430,10.);
#119=VECTOR('',#431,10.);
#120=VECTOR('',#432,10.);
#121=VECTOR('',#437,10.);
#122=VECTOR('',#442,10.);
#123=VECTOR('',#443,10.);
#124=VECTOR('',#444,10.);
#125=VECTOR('',#447,10.);
#126=VECTOR('',#448,10.);
#127=VECTOR('',#449,10.);
#128=VECTOR('',#452,10.);
#129=VECTOR('',#453,10.);
#130=VECTOR('',#454,10.);
#131=VECTOR('',#459,10.);
#132=VECTOR('',#464,10.);
#133=VECTOR('',#465,10.);
#134=VECTOR('',#466,10.);
#135=VECTOR('',#471,10.);
#136=VECTOR('',#476,10.);
#137=VECTOR('',#477,10.);
#138=VECTOR('',#478,10.);
#139=VECTOR('',#481,10.);
#140=VECTOR('',#482,10.);
#141=VECTOR('',#483,10.);
#142=VECTOR('',#486,10.);
#143=VECTOR('',#487,10.);
#144=VECTOR('',#488,10.);
#145=VERTEX_POINT('',#501);
#146=VERTEX_POINT('',#502);
#147=VERTEX_POINT('',#504);
#148=VERTEX_POINT('',#506);
#149=VERTEX_POINT('',#510);
#150=VERTEX_POINT('',#512);
#151=VERTEX_POINT('',#516);
#152=VERTEX_POINT('',#518);
#153=VERTEX_POINT('',#525);
#154=VERTEX_POINT('',#526);
#155=VERTEX_POINT('',#528);
#156=VERTEX_POINT('',#530);
#157=VERTEX_POINT('',#534);
#158=VERTEX_POINT('',#536);
#159=VERTEX_POINT('',#540);
#160=VERTEX_POINT('',#542);
#161=VERTEX_POINT('',#546);
#162=VERTEX_POINT('',#548);
#163=VERTEX_POINT('',#552);
#164=VERTEX_POINT('',#554);
#165=VERTEX_POINT('',#558);
#166=VERTEX_POINT('',#560);
#167=VERTEX_POINT('',#564);
#168=VERTEX_POINT('',#566);
#169=VERTEX_POINT('',#570);
#170=VERTEX_POINT('',#572);
#171=VERTEX_POINT('',#576);
#172=VERTEX_POINT('',#578);
#173=VERTEX_POINT('',#582);
#174=VERTEX_POINT('',#584);
#175=VERTEX_POINT('',#588);
#176=VERTEX_POINT('',#590);
#177=EDGE_CURVE('',#145,#146,#73,.T.);
#178=EDGE_CURVE('',#147,#145,#74,.T.);
#179=EDGE_CURVE('',#148,#147,#75,.T.);
#180=EDGE_CURVE('',#148,#146,#76,.T.);
#181=EDGE_CURVE('',#146,#149,#17,.T.);
#182=EDGE_CURVE('',#150,#148,#18,.T.);
#183=EDGE_CURVE('',#150,#149,#77,.T.);
#184=EDGE_CURVE('',#149,#151,#78,.T.);
#185=EDGE_CURVE('',#152,#150,#79,.T.);
#186=EDGE_CURVE('',#152,#151,#80,.T.);
#187=EDGE_CURVE('',#151,#145,#19,.T.);
#188=EDGE_CURVE('',#147,#152,#20,.T.);
#189=EDGE_CURVE('',#153,#154,#81,.T.);
#190=EDGE_CURVE('',#155,#154,#82,.T.);
#191=EDGE_CURVE('',#156,#155,#83,.T.);
#192=EDGE_CURVE('',#156,#153,#84,.T.);
#193=EDGE_CURVE('',#154,#157,#21,.T.);
#194=EDGE_CURVE('',#158,#157,#85,.T.);
#195=EDGE_CURVE('',#155,#158,#22,.T.);
#196=EDGE_CURVE('',#157,#159,#86,.T.);
#197=EDGE_CURVE('',#160,#159,#87,.T.);
#198=EDGE_CURVE('',#158,#160,#88,.T.);
#199=EDGE_CURVE('',#159,#161,#89,.T.);
#200=EDGE_CURVE('',#162,#161,#90,.T.);
#201=EDGE_CURVE('',#160,#162,#91,.T.);
#202=EDGE_CURVE('',#161,#163,#92,.T.);
#203=EDGE_CURVE('',#164,#163,#93,.T.);
#204=EDGE_CURVE('',#162,#164,#94,.T.);
#205=EDGE_CURVE('',#163,#165,#23,.T.);
#206=EDGE_CURVE('',#166,#165,#95,.T.);
#207=EDGE_CURVE('',#164,#166,#24,.T.);
#208=EDGE_CURVE('',#165,#167,#96,.T.);
#209=EDGE_CURVE('',#168,#167,#97,.T.);
#210=EDGE_CURVE('',#166,#168,#98,.T.);
#211=EDGE_CURVE('',#167,#169,#25,.T.);
#212=EDGE_CURVE('',#170,#169,#99,.T.);
#213=EDGE_CURVE('',#168,#170,#26,.T.);
#214=EDGE_CURVE('',#169,#171,#100,.T.);
#215=EDGE_CURVE('',#172,#171,#101,.T.);
#216=EDGE_CURVE('',#170,#172,#102,.T.);
#217=EDGE_CURVE('',#171,#173,#103,.T.);
#218=EDGE_CURVE('',#174,#173,#104,.T.);
#219=EDGE_CURVE('',#172,#174,#105,.T.);
#220=EDGE_CURVE('',#173,#175,#106,.T.);
#221=EDGE_CURVE('',#176,#175,#107,.T.);
#222=EDGE_CURVE('',#174,#176,#108,.T.);
#223=EDGE_CURVE('',#175,#153,#27,.T.);
#224=EDGE_CURVE('',#176,#156,#28,.T.);
#225=ORIENTED_EDGE('',*,*,#177,.F.);
#226=ORIENTED_EDGE('',*,*,#178,.F.);
#227=ORIENTED_EDGE('',*,*,#179,.F.);
#228=ORIENTED_EDGE('',*,*,#180,.T.);
#229=ORIENTED_EDGE('',*,*,#181,.F.);
#230=ORIENTED_EDGE('',*,*,#180,.F.);
#231=ORIENTED_EDGE('',*,*,#182,.F.);
#232=ORIENTED_EDGE('',*,*,#183,.T.);
#233=ORIENTED_EDGE('',*,*,#184,.F.);
#234=ORIENTED_EDGE('',*,*,#183,.F.);
#235=ORIENTED_EDGE('',*,*,#185,.F.);
#236=ORIENTED_EDGE('',*,*,#186,.T.);
#237=ORIENTED_EDGE('',*,*,#187,.F.);
#238=ORIENTED_EDGE('',*,*,#186,.F.);
#239=ORIENTED_EDGE('',*,*,#188,.F.);
#240=ORIENTED_EDGE('',*,*,#178,.T.);
#241=ORIENTED_EDGE('',*,*,#189,.T.);
#242=ORIENTED_EDGE('',*,*,#190,.F.);
#243=ORIENTED_EDGE('',*,*,#191,.F.);
#244=ORIENTED_EDGE('',*,*,#192,.T.);
#245=ORIENTED_EDGE('',*,*,#184,.T.);
#246=ORIENTED_EDGE('',*,*,#187,.T.);
#247=ORIENTED_EDGE('',*,*,#177,.T.);
#248=ORIENTED_EDGE('',*,*,#181,.T.);
#249=ORIENTED_EDGE('',*,*,#193,.T.);
#250=ORIENTED_EDGE('',*,*,#194,.F.);
#251=ORIENTED_EDGE('',*,*,#195,.F.);
#252=ORIENTED_EDGE('',*,*,#190,.T.);
#253=ORIENTED_EDGE('',*,*,#196,.T.);
#254=ORIENTED_EDGE('',*,*,#197,.F.);
#255=ORIENTED_EDGE('',*,*,#198,.F.);
#256=ORIENTED_EDGE('',*,*,#194,.T.);
#257=ORIENTED_EDGE('',*,*,#199,.T.);
#258=ORIENTED_EDGE('',*,*,#200,.F.);
#259=ORIENTED_EDGE('',*,*,#201,.F.);
#260=ORIENTED_EDGE('',*,*,#197,.T.);
#261=ORIENTED_EDGE('',*,*,#202,.T.);
#262=ORIENTED_EDGE('',*,*,#203,.F.);
#263=ORIENTED_EDGE('',*,*,#204,.F.);
#264=ORIENTED_EDGE('',*,*,#200,.T.);
#265=ORIENTED_EDGE('',*,*,#205,.T.);
#266=ORIENTED_EDGE('',*,*,#206,.F.);
#267=ORIENTED_EDGE('',*,*,#207,.F.);
#268=ORIENTED_EDGE('',*,*,#203,.T.);
#269=ORIENTED_EDGE('',*,*,#208,.T.);
#270=ORIENTED_EDGE('',*,*,#209,.F.);
#271=ORIENTED_EDGE('',*,*,#210,.F.);
#272=ORIENTED_EDGE('',*,*,#206,.T.);
#273=ORIENTED_EDGE('',*,*,#185,.T.);
#274=ORIENTED_EDGE('',*,*,#182,.T.);
#275=ORIENTED_EDGE('',*,*,#179,.T.);
#276=ORIENTED_EDGE('',*,*,#188,.T.);
#277=ORIENTED_EDGE('',*,*,#211,.T.);
#278=ORIENTED_EDGE('',*,*,#212,.F.);
#279=ORIENTED_EDGE('',*,*,#213,.F.);
#280=ORIENTED_EDGE('',*,*,#209,.T.);
#281=ORIENTED_EDGE('',*,*,#214,.T.);
#282=ORIENTED_EDGE('',*,*,#215,.F.);
#283=ORIENTED_EDGE('',*,*,#216,.F.);
#284=ORIENTED_EDGE('',*,*,#212,.T.);
#285=ORIENTED_EDGE('',*,*,#217,.T.);
#286=ORIENTED_EDGE('',*,*,#218,.F.);
#287=ORIENTED_EDGE('',*,*,#219,.F.);
#288=ORIENTED_EDGE('',*,*,#215,.T.);
#289=ORIENTED_EDGE('',*,*,#220,.T.);
#290=ORIENTED_EDGE('',*,*,#221,.F.);
#291=ORIENTED_EDGE('',*,*,#222,.F.);
#292=ORIENTED_EDGE('',*,*,#218,.T.);
#293=ORIENTED_EDGE('',*,*,#223,.T.);
#294=ORIENTED_EDGE('',*,*,#192,.F.);
#295=ORIENTED_EDGE('',*,*,#224,.F.);
#296=ORIENTED_EDGE('',*,*,#221,.T.);
#297=ORIENTED_EDGE('',*,*,#189,.F.);
#298=ORIENTED_EDGE('',*,*,#223,.F.);
#299=ORIENTED_EDGE('',*,*,#220,.F.);
#300=ORIENTED_EDGE('',*,*,#217,.F.);
#301=ORIENTED_EDGE('',*,*,#214,.F.);
#302=ORIENTED_EDGE('',*,*,#211,.F.);
#303=ORIENTED_EDGE('',*,*,#208,.F.);
#304=ORIENTED_EDGE('',*,*,#205,.F.);
#305=ORIENTED_EDGE('',*,*,#202,.F.);
#306=ORIENTED_EDGE('',*,*,#199,.F.);
#307=ORIENTED_EDGE('',*,*,#196,.F.);
#308=ORIENTED_EDGE('',*,*,#193,.F.);
#309=ORIENTED_EDGE('',*,*,#224,.T.);
#310=ORIENTED_EDGE('',*,*,#191,.T.);
#311=ORIENTED_EDGE('',*,*,#195,.T.);
#312=ORIENTED_EDGE('',*,*,#198,.T.);
#313=ORIENTED_EDGE('',*,*,#201,.T.);
#314=ORIENTED_EDGE('',*,*,#204,.T.);
#315=ORIENTED_EDGE('',*,*,#207,.T.);
#316=ORIENTED_EDGE('',*,*,#210,.T.);
#317=ORIENTED_EDGE('',*,*,#213,.T.);
#318=ORIENTED_EDGE('',*,*,#216,.T.);
#319=ORIENTED_EDGE('',*,*,#219,.T.);
#320=ORIENTED_EDGE('',*,*,#222,.T.);
#321=PLANE('',#371);
#322=PLANE('',#375);
#323=PLANE('',#379);
#324=PLANE('',#383);
#325=PLANE('',#384);
#326=PLANE('',#385);
#327=PLANE('',#389);
#328=PLANE('',#393);
#329=PLANE('',#394);
#330=PLANE('',#395);
#331=PLANE('',#399);
#332=PLANE('',#400);
#333=ADVANCED_FACE('',(#35),#321,.F.);
#334=ADVANCED_FACE('',(#36),#29,.F.);
#335=ADVANCED_FACE('',(#37),#322,.F.);
#336=ADVANCED_FACE('',(#38),#30,.F.);
#337=ADVANCED_FACE('',(#39,#15),#323,.T.);
#338=ADVANCED_FACE('',(#40),#31,.F.);
#339=ADVANCED_FACE('',(#41),#324,.T.);
#340=ADVANCED_FACE('',(#42),#325,.T.);
#341=ADVANCED_FACE('',(#43),#326,.T.);
#342=ADVANCED_FACE('',(#44),#32,.T.);
#343=ADVANCED_FACE('',(#45,#16),#327,.T.);
#344=ADVANCED_FACE('',(#46),#33,.T.);
#345=ADVANCED_FACE('',(#47),#328,.T.);
#346=ADVANCED_FACE('',(#48),#329,.T.);
#347=ADVANCED_FACE('',(#49),#330,.T.);
#348=ADVANCED_FACE('',(#50),#34,.F.);
#349=ADVANCED_FACE('',(#51),#331,.T.);
#350=ADVANCED_FACE('',(#52),#332,.F.);
#351=CLOSED_SHELL('',(#333,#334,#335,#336,#337,#338,#339,#340,#341,#342,
#343,#344,#345,#346,#347,#348,#349,#350));
#352=DERIVED_UNIT_ELEMENT(#354,1.);
#353=DERIVED_UNIT_ELEMENT(#603,3.);
#354=(
MASS_UNIT()
NAMED_UNIT(*)
SI_UNIT($,.GRAM.)
);
#355=DERIVED_UNIT((#352,#353));
#356=MEASURE_REPRESENTATION_ITEM('density measure',
POSITIVE_RATIO_MEASURE(1.),#355);
#357=PROPERTY_DEFINITION_REPRESENTATION(#362,#359);
#358=PROPERTY_DEFINITION_REPRESENTATION(#363,#360);
#359=REPRESENTATION('material name',(#361),#600);
#360=REPRESENTATION('density',(#356),#600);
#361=DESCRIPTIVE_REPRESENTATION_ITEM('G\X\E9n\X\E9rique','G\X\E9n\X\E9
rique');
#362=PROPERTY_DEFINITION('material property','material name',#610);
#363=PROPERTY_DEFINITION('material property','density of part',#610);
#364=DATE_TIME_ROLE('creation_date');
#365=APPLIED_DATE_AND_TIME_ASSIGNMENT(#366,#364,(#610));
#366=DATE_AND_TIME(#367,#368);
#367=CALENDAR_DATE(2003,4,7);
#368=LOCAL_TIME(7,31,51.,#369);
#369=COORDINATED_UNIVERSAL_TIME_OFFSET(0,0,.BEHIND.);
#370=AXIS2_PLACEMENT_3D('placement',#499,#401,#402);
#371=AXIS2_PLACEMENT_3D('',#500,#403,#404);
#372=AXIS2_PLACEMENT_3D('',#509,#409,#410);
#373=AXIS2_PLACEMENT_3D('',#511,#411,#412);
#374=AXIS2_PLACEMENT_3D('',#513,#413,#414);
#375=AXIS2_PLACEMENT_3D('',#515,#416,#417);
#376=AXIS2_PLACEMENT_3D('',#521,#421,#422);
#377=AXIS2_PLACEMENT_3D('',#522,#423,#424);
#378=AXIS2_PLACEMENT_3D('',#523,#425,#426);
#379=AXIS2_PLACEMENT_3D('',#524,#427,#428);
#380=AXIS2_PLACEMENT_3D('',#533,#433,#434);
#381=AXIS2_PLACEMENT_3D('',#535,#435,#436);
#382=AXIS2_PLACEMENT_3D('',#538,#438,#439);
#383=AXIS2_PLACEMENT_3D('',#539,#440,#441);
#384=AXIS2_PLACEMENT_3D('',#545,#445,#446);
#385=AXIS2_PLACEMENT_3D('',#551,#450,#451);
#386=AXIS2_PLACEMENT_3D('',#557,#455,#456);
#387=AXIS2_PLACEMENT_3D('',#559,#457,#458);
#388=AXIS2_PLACEMENT_3D('',#562,#460,#461);
#389=AXIS2_PLACEMENT_3D('',#563,#462,#463);
#390=AXIS2_PLACEMENT_3D('',#569,#467,#468);
#391=AXIS2_PLACEMENT_3D('',#571,#469,#470);
#392=AXIS2_PLACEMENT_3D('',#574,#472,#473);
#393=AXIS2_PLACEMENT_3D('',#575,#474,#475);
#394=AXIS2_PLACEMENT_3D('',#581,#479,#480);
#395=AXIS2_PLACEMENT_3D('',#587,#484,#485);
#396=AXIS2_PLACEMENT_3D('',#593,#489,#490);
#397=AXIS2_PLACEMENT_3D('',#594,#491,#492);
#398=AXIS2_PLACEMENT_3D('',#595,#493,#494);
#399=AXIS2_PLACEMENT_3D('',#596,#495,#496);
#400=AXIS2_PLACEMENT_3D('',#597,#497,#498);
#401=DIRECTION('axis',(0.,0.,1.));
#402=DIRECTION('refdir',(1.,0.,0.));
#403=DIRECTION('center_axis',(1.,0.,0.));
#404=DIRECTION('ref_axis',(0.,0.,-1.));
#405=DIRECTION('',(0.,0.,-1.));
#406=DIRECTION('',(0.,-1.,0.));
#407=DIRECTION('',(0.,0.,1.));
#408=DIRECTION('',(0.,-1.,0.));
#409=DIRECTION('center_axis',(0.,-1.,0.));
#410=DIRECTION('ref_axis',(-1.,0.,0.));
#411=DIRECTION('center_axis',(0.,1.,0.));
#412=DIRECTION('ref_axis',(-1.,0.,0.));
#413=DIRECTION('center_axis',(0.,-1.,0.));
#414=DIRECTION('ref_axis',(-1.,0.,0.));
#415=DIRECTION('',(0.,-1.,0.));
#416=DIRECTION('center_axis',(-1.,0.,0.));
#417=DIRECTION('ref_axis',(0.,0.,1.));
#418=DIRECTION('',(0.,0.,1.));
#419=DIRECTION('',(0.,0.,-1.));
#420=DIRECTION('',(0.,-1.,0.));
#421=DIRECTION('center_axis',(0.,-1.,0.));
#422=DIRECTION('ref_axis',(1.,0.,0.));
#423=DIRECTION('center_axis',(0.,1.,0.));
#424=DIRECTION('ref_axis',(1.,0.,0.));
#425=DIRECTION('center_axis',(0.,-1.,0.));
#426=DIRECTION('ref_axis',(1.,0.,0.));
#427=DIRECTION('center_axis',(0.,-1.,0.));
#428=DIRECTION('ref_axis',(0.,0.,-1.));
#429=DIRECTION('',(-1.,0.,0.));
#430=DIRECTION('',(0.,0.,1.));
#431=DIRECTION('',(-1.,0.,0.));
#432=DIRECTION('',(0.,0.,1.));
#433=DIRECTION('center_axis',(0.,0.,1.));
#434=DIRECTION('ref_axis',(0.,1.,0.));
#435=DIRECTION('center_axis',(0.,0.,1.));
#436=DIRECTION('ref_axis',(0.,1.,0.));
#437=DIRECTION('',(0.,0.,1.));
#438=DIRECTION('center_axis',(0.,0.,1.));
#439=DIRECTION('ref_axis',(0.,1.,0.));
#440=DIRECTION('center_axis',(0.707106781186546,-0.707106781186549,0.));
#441=DIRECTION('ref_axis',(0.,0.,-1.));
#442=DIRECTION('',(-0.707106781186549,-0.707106781186546,0.));
#443=DIRECTION('',(0.,0.,1.));
#444=DIRECTION('',(-0.707106781186549,-0.707106781186546,0.));
#445=DIRECTION('center_axis',(-0.707106781186543,-0.707106781186552,0.));
#446=DIRECTION('ref_axis',(0.,0.,1.));
#447=DIRECTION('',(-0.707106781186552,0.707106781186543,0.));
#448=DIRECTION('',(0.,0.,1.));
#449=DIRECTION('',(-0.707106781186552,0.707106781186543,0.));
#450=DIRECTION('center_axis',(-0.707106781186547,0.707106781186548,0.));
#451=DIRECTION('ref_axis',(0.,0.,1.));
#452=DIRECTION('',(0.707106781186548,0.707106781186547,0.));
#453=DIRECTION('',(0.,0.,1.));
#454=DIRECTION('',(0.707106781186548,0.707106781186547,0.));
#455=DIRECTION('center_axis',(0.,0.,1.));
#456=DIRECTION('ref_axis',(0.,-1.,0.));
#457=DIRECTION('center_axis',(0.,0.,-1.));
#458=DIRECTION('ref_axis',(0.,-1.,0.));
#459=DIRECTION('',(0.,0.,1.));
#460=DIRECTION('center_axis',(0.,0.,-1.));
#461=DIRECTION('ref_axis',(0.,-1.,0.));
#462=DIRECTION('center_axis',(0.,1.,0.));
#463=DIRECTION('ref_axis',(0.,0.,1.));
#464=DIRECTION('',(1.,0.,0.));
#465=DIRECTION('',(0.,0.,1.));
#466=DIRECTION('',(1.,0.,0.));
#467=DIRECTION('center_axis',(0.,0.,1.));
#468=DIRECTION('ref_axis',(-0.707106781186546,-0.707106781186549,0.));
#469=DIRECTION('center_axis',(0.,0.,-1.));
#470=DIRECTION('ref_axis',(-0.707106781186546,-0.707106781186549,0.));
#471=DIRECTION('',(0.,0.,1.));
#472=DIRECTION('center_axis',(0.,0.,-1.));
#473=DIRECTION('ref_axis',(-0.707106781186546,-0.707106781186549,0.));
#474=DIRECTION('center_axis',(0.707106781186548,0.707106781186547,0.));
#475=DIRECTION('ref_axis',(0.,0.,-1.));
#476=DIRECTION('',(0.707106781186547,-0.707106781186548,0.));
#477=DIRECTION('',(0.,0.,1.));
#478=DIRECTION('',(0.707106781186547,-0.707106781186548,0.));
#479=DIRECTION('center_axis',(0.707106781186543,-0.707106781186552,0.));
#480=DIRECTION('ref_axis',(0.,0.,-1.));
#481=DIRECTION('',(-0.707106781186552,-0.707106781186543,0.));
#482=DIRECTION('',(0.,0.,1.));
#483=DIRECTION('',(-0.707106781186552,-0.707106781186543,0.));
#484=DIRECTION('center_axis',(-0.707106781186546,-0.707106781186549,0.));
#485=DIRECTION('ref_axis',(0.,0.,1.));
#486=DIRECTION('',(-0.707106781186549,0.707106781186546,0.));
#487=DIRECTION('',(0.,0.,1.));
#488=DIRECTION('',(-0.707106781186549,0.707106781186546,0.));
#489=DIRECTION('center_axis',(0.,0.,1.));
#490=DIRECTION('ref_axis',(0.707106781186548,0.707106781186548,0.));
#491=DIRECTION('center_axis',(0.,0.,1.));
#492=DIRECTION('ref_axis',(0.707106781186548,0.707106781186548,0.));
#493=DIRECTION('center_axis',(0.,0.,1.));
#494=DIRECTION('ref_axis',(0.707106781186548,0.707106781186548,0.));
#495=DIRECTION('center_axis',(0.,0.,1.));
#496=DIRECTION('ref_axis',(1.,0.,0.));
#497=DIRECTION('center_axis',(0.,0.,1.));
#498=DIRECTION('ref_axis',(1.,0.,0.));
#499=CARTESIAN_POINT('',(0.,0.,0.));
#500=CARTESIAN_POINT('Origin',(110.756014184102,221.234735501013,25.));
#501=CARTESIAN_POINT('',(110.756014184102,215.234735501013,25.));
#502=CARTESIAN_POINT('',(110.756014184102,215.234735501013,15.));
#503=CARTESIAN_POINT('',(110.756014184102,215.234735501013,12.5));
#504=CARTESIAN_POINT('',(110.756014184102,221.234735501013,25.));
#505=CARTESIAN_POINT('',(110.756014184102,221.234735501013,25.));
#506=CARTESIAN_POINT('',(110.756014184102,221.234735501013,15.));
#507=CARTESIAN_POINT('',(110.756014184102,221.234735501013,12.5));
#508=CARTESIAN_POINT('',(110.756014184102,221.234735501013,15.));
#509=CARTESIAN_POINT('Origin',(103.256014184102,221.234735501013,15.));
#510=CARTESIAN_POINT('',(95.7560141841017,215.234735501013,15.));
#511=CARTESIAN_POINT('Origin',(103.256014184102,215.234735501013,15.));
#512=CARTESIAN_POINT('',(95.7560141841017,221.234735501013,15.));
#513=CARTESIAN_POINT('Origin',(103.256014184102,221.234735501013,15.));
#514=CARTESIAN_POINT('',(95.7560141841017,221.234735501013,15.));
#515=CARTESIAN_POINT('Origin',(95.7560141841017,221.234735501013,15.));
#516=CARTESIAN_POINT('',(95.7560141841017,215.234735501013,25.));
#517=CARTESIAN_POINT('',(95.7560141841017,215.234735501013,7.5));
#518=CARTESIAN_POINT('',(95.7560141841017,221.234735501013,25.));
#519=CARTESIAN_POINT('',(95.7560141841017,221.234735501013,7.5));
#520=CARTESIAN_POINT('',(95.7560141841017,221.234735501013,25.));
#521=CARTESIAN_POINT('Origin',(103.256014184102,221.234735501013,25.));
#522=CARTESIAN_POINT('Origin',(103.256014184102,215.234735501013,25.));
#523=CARTESIAN_POINT('Origin',(103.256014184102,221.234735501013,25.));
#524=CARTESIAN_POINT('Origin',(126.35651924749,215.234735501013,0.));
#525=CARTESIAN_POINT('',(126.35651924749,215.234735501013,40.));
#526=CARTESIAN_POINT('',(80.1555091207134,215.234735501013,40.));
#527=CARTESIAN_POINT('',(126.35651924749,215.234735501013,40.));
#528=CARTESIAN_POINT('',(80.1555091207134,215.234735501013,0.));
#529=CARTESIAN_POINT('',(80.1555091207134,215.234735501013,0.));
#530=CARTESIAN_POINT('',(126.35651924749,215.234735501013,0.));
#531=CARTESIAN_POINT('',(126.35651924749,215.234735501013,0.));
#532=CARTESIAN_POINT('',(126.35651924749,215.234735501013,0.));
#533=CARTESIAN_POINT('Origin',(80.1555091207134,211.234735501013,0.));
#534=CARTESIAN_POINT('',(77.3270819959672,214.063162625759,40.));
#535=CARTESIAN_POINT('Origin',(80.1555091207134,211.234735501013,40.));
#536=CARTESIAN_POINT('',(77.3270819959672,214.063162625759,0.));
#537=CARTESIAN_POINT('',(77.3270819959672,214.063162625759,0.));
#538=CARTESIAN_POINT('Origin',(80.1555091207134,211.234735501013,0.));
#539=CARTESIAN_POINT('Origin',(77.3270819959672,214.063162625759,0.));
#540=CARTESIAN_POINT('',(60.498654871221,197.234735501013,40.));
#541=CARTESIAN_POINT('',(77.3270819959672,214.063162625759,40.));
#542=CARTESIAN_POINT('',(60.498654871221,197.234735501013,0.));
#543=CARTESIAN_POINT('',(60.498654871221,197.234735501013,0.));
#544=CARTESIAN_POINT('',(77.3270819959672,214.063162625759,0.));
#545=CARTESIAN_POINT('Origin',(60.498654871221,197.234735501013,0.));
#546=CARTESIAN_POINT('',(56.2560141841017,201.477376188133,40.));
#547=CARTESIAN_POINT('',(60.498654871221,197.234735501013,40.));
#548=CARTESIAN_POINT('',(56.2560141841017,201.477376188133,0.));
#549=CARTESIAN_POINT('',(56.2560141841017,201.477376188133,0.));
#550=CARTESIAN_POINT('',(60.498654871221,197.234735501013,0.));
#551=CARTESIAN_POINT('Origin',(56.2560141841017,201.477376188133,0.));
#552=CARTESIAN_POINT('',(73.0844413088479,218.305803312879,40.));
#553=CARTESIAN_POINT('',(56.2560141841017,201.477376188133,40.));
#554=CARTESIAN_POINT('',(73.0844413088479,218.305803312879,0.));
#555=CARTESIAN_POINT('',(73.0844413088479,218.305803312879,0.));
#556=CARTESIAN_POINT('',(56.2560141841017,201.477376188133,0.));
#557=CARTESIAN_POINT('Origin',(80.1555091207134,211.234735501013,0.));
#558=CARTESIAN_POINT('',(80.1555091207134,221.234735501013,40.));
#559=CARTESIAN_POINT('Origin',(80.1555091207134,211.234735501013,40.));
#560=CARTESIAN_POINT('',(80.1555091207134,221.234735501013,0.));
#561=CARTESIAN_POINT('',(80.1555091207134,221.234735501013,0.));
#562=CARTESIAN_POINT('Origin',(80.1555091207134,211.234735501013,0.));
#563=CARTESIAN_POINT('Origin',(80.1555091207134,221.234735501013,0.));
#564=CARTESIAN_POINT('',(126.35651924749,221.234735501013,40.));
#565=CARTESIAN_POINT('',(80.1555091207134,221.234735501013,40.));
#566=CARTESIAN_POINT('',(126.35651924749,221.234735501013,0.));
#567=CARTESIAN_POINT('',(126.35651924749,221.234735501013,0.));
#568=CARTESIAN_POINT('',(80.1555091207134,221.234735501013,0.));
#569=CARTESIAN_POINT('Origin',(126.35651924749,211.234735501013,0.));
#570=CARTESIAN_POINT('',(133.427587059356,218.305803312879,40.));
#571=CARTESIAN_POINT('Origin',(126.35651924749,211.234735501013,40.));
#572=CARTESIAN_POINT('',(133.427587059356,218.305803312879,0.));
#573=CARTESIAN_POINT('',(133.427587059356,218.305803312879,0.));
#574=CARTESIAN_POINT('Origin',(126.35651924749,211.234735501013,0.));
#575=CARTESIAN_POINT('Origin',(133.427587059356,218.305803312879,0.));
#576=CARTESIAN_POINT('',(150.256014184102,201.477376188133,40.));
#577=CARTESIAN_POINT('',(133.427587059356,218.305803312879,40.));
#578=CARTESIAN_POINT('',(150.256014184102,201.477376188133,0.));
#579=CARTESIAN_POINT('',(150.256014184102,201.477376188133,0.));
#580=CARTESIAN_POINT('',(133.427587059356,218.305803312879,0.));
#581=CARTESIAN_POINT('Origin',(150.256014184102,201.477376188133,0.));
#582=CARTESIAN_POINT('',(146.013373496982,197.234735501013,40.));
#583=CARTESIAN_POINT('',(150.256014184102,201.477376188133,40.));
#584=CARTESIAN_POINT('',(146.013373496982,197.234735501013,0.));
#585=CARTESIAN_POINT('',(146.013373496982,197.234735501013,0.));
#586=CARTESIAN_POINT('',(150.256014184102,201.477376188133,0.));
#587=CARTESIAN_POINT('Origin',(146.013373496982,197.234735501013,0.));
#588=CARTESIAN_POINT('',(129.184946372236,214.063162625759,40.));
#589=CARTESIAN_POINT('',(146.013373496982,197.234735501013,40.));
#590=CARTESIAN_POINT('',(129.184946372236,214.063162625759,0.));
#591=CARTESIAN_POINT('',(129.184946372236,214.063162625759,0.));
#592=CARTESIAN_POINT('',(146.013373496982,197.234735501013,0.));
#593=CARTESIAN_POINT('Origin',(126.35651924749,211.234735501013,0.));
#594=CARTESIAN_POINT('Origin',(126.35651924749,211.234735501013,40.));
#595=CARTESIAN_POINT('Origin',(126.35651924749,211.234735501013,0.));
#596=CARTESIAN_POINT('Origin',(103.256014184102,212.758566121174,40.));
#597=CARTESIAN_POINT('Origin',(103.256014184102,212.758566121174,0.));
#598=UNCERTAINTY_MEASURE_WITH_UNIT(LENGTH_MEASURE(0.01),#602,
'DISTANCE_ACCURACY_VALUE',
'Maximum model space distance between geometric entities at asserted c
onnectivities');
#599=UNCERTAINTY_MEASURE_WITH_UNIT(LENGTH_MEASURE(0.01),#602,
'DISTANCE_ACCURACY_VALUE',
'Maximum model space distance between geometric entities at asserted c
onnectivities');
#600=(
GEOMETRIC_REPRESENTATION_CONTEXT(3)
GLOBAL_UNCERTAINTY_ASSIGNED_CONTEXT((#598))
GLOBAL_UNIT_ASSIGNED_CONTEXT((#602,#604,#605))
REPRESENTATION_CONTEXT('','3D')
);
#601=(
GEOMETRIC_REPRESENTATION_CONTEXT(3)
GLOBAL_UNCERTAINTY_ASSIGNED_CONTEXT((#599))
GLOBAL_UNIT_ASSIGNED_CONTEXT((#602,#604,#605))
REPRESENTATION_CONTEXT('','3D')
);
#602=(
LENGTH_UNIT()
NAMED_UNIT(*)
SI_UNIT(.MILLI.,.METRE.)
);
#603=(
LENGTH_UNIT()
NAMED_UNIT(*)
SI_UNIT(.CENTI.,.METRE.)
);
#604=(
NAMED_UNIT(*)
PLANE_ANGLE_UNIT()
SI_UNIT($,.RADIAN.)
);
#605=(
NAMED_UNIT(*)
SI_UNIT($,.STERADIAN.)
SOLID_ANGLE_UNIT()
);
#606=SHAPE_DEFINITION_REPRESENTATION(#607,#608);
#607=PRODUCT_DEFINITION_SHAPE('',$,#610);
#608=SHAPE_REPRESENTATION('',(#370),#600);
#609=PRODUCT_DEFINITION_CONTEXT('part definition',#614,'design');
#610=PRODUCT_DEFINITION('65','65',#611,#609);
#611=PRODUCT_DEFINITION_FORMATION('',$,#616);
#612=PRODUCT_RELATED_PRODUCT_CATEGORY('65','65',(#616));
#613=APPLICATION_PROTOCOL_DEFINITION('international standard',
'automotive_design',2009,#614);
#614=APPLICATION_CONTEXT(
'Core Data for Automotive Mechanical Design Process');
#615=PRODUCT_CONTEXT('part definition',#614,'mechanical');
#616=PRODUCT('65','65',$,(#615));
#617=PRESENTATION_STYLE_ASSIGNMENT((#618));
#618=SURFACE_STYLE_USAGE(.BOTH.,#621);
#619=SURFACE_STYLE_RENDERING_WITH_PROPERTIES($,#625,(#620));
#620=SURFACE_STYLE_TRANSPARENT(0.);
#621=SURFACE_SIDE_STYLE('',(#622,#619));
#622=SURFACE_STYLE_FILL_AREA(#623);
#623=FILL_AREA_STYLE('',(#624));
#624=FILL_AREA_STYLE_COLOUR('',#625);
#625=COLOUR_RGB('',0.752941176470588,0.752941176470588,0.752941176470588);
ENDSEC;
END-ISO-10303-21;
