ISO-10303-21;
HEADER;
/* Generated by software containing ST-Developer
 * from STEP Tools, Inc. (www.steptools.com) 
 */

FILE_DESCRIPTION(
/* description */ ('Platine sur chant pour vis M8 - inox A4'),
/* implementation_level */ '2;1');

FILE_NAME(
/* name */ 
'R:\\BE\\Inventor\\Plans commerciaux\\Plans pour conversion\\Pret pour
 upload\\0026XA4.stp',
/* time_stamp */ '2023-02-01T09:53:24+01:00',
/* author */ ('Giuliano'),
/* organization */ (''),
/* preprocessor_version */ 'ST-DEVELOPER v18.1',
/* originating_system */ 'Autodesk Inventor 2021',
/* authorisation */ '');

FILE_SCHEMA (('AUTOMOTIVE_DESIGN { 1 0 10303 214 3 1 1 }'));
ENDSEC;

DATA;
#10=MECHANICAL_DESIGN_GEOMETRIC_PRESENTATION_REPRESENTATION('',(#13),#382);
#11=SHAPE_REPRESENTATION_RELATIONSHIP('SRR','None',#389,#12);
#12=ADVANCED_BREP_SHAPE_REPRESENTATION('',(#14),#381);
#13=STYLED_ITEM('',(#398),#14);
#14=MANIFOLD_SOLID_BREP('Solide3',#218);
#15=FACE_BOUND('',#50,.T.);
#16=FACE_BOUND('',#51,.T.);
#17=FACE_BOUND('',#52,.T.);
#18=FACE_BOUND('',#53,.T.);
#19=FACE_BOUND('',#54,.T.);
#20=FACE_BOUND('',#56,.T.);
#21=FACE_BOUND('',#57,.T.);
#22=FACE_BOUND('',#58,.T.);
#23=FACE_BOUND('',#59,.T.);
#24=FACE_BOUND('',#60,.T.);
#25=PLANE('',#250);
#26=PLANE('',#254);
#27=PLANE('',#255);
#28=PLANE('',#256);
#29=FACE_OUTER_BOUND('',#40,.T.);
#30=FACE_OUTER_BOUND('',#41,.T.);
#31=FACE_OUTER_BOUND('',#42,.T.);
#32=FACE_OUTER_BOUND('',#43,.T.);
#33=FACE_OUTER_BOUND('',#44,.T.);
#34=FACE_OUTER_BOUND('',#45,.T.);
#35=FACE_OUTER_BOUND('',#46,.T.);
#36=FACE_OUTER_BOUND('',#47,.T.);
#37=FACE_OUTER_BOUND('',#48,.T.);
#38=FACE_OUTER_BOUND('',#49,.T.);
#39=FACE_OUTER_BOUND('',#55,.T.);
#40=EDGE_LOOP('',(#146,#147,#148,#149));
#41=EDGE_LOOP('',(#150,#151,#152,#153));
#42=EDGE_LOOP('',(#154,#155,#156,#157));
#43=EDGE_LOOP('',(#158,#159,#160,#161));
#44=EDGE_LOOP('',(#162,#163,#164,#165));
#45=EDGE_LOOP('',(#166,#167,#168,#169));
#46=EDGE_LOOP('',(#170,#171,#172,#173));
#47=EDGE_LOOP('',(#174,#175,#176,#177));
#48=EDGE_LOOP('',(#178,#179,#180,#181));
#49=EDGE_LOOP('',(#182,#183,#184,#185));
#50=EDGE_LOOP('',(#186));
#51=EDGE_LOOP('',(#187));
#52=EDGE_LOOP('',(#188));
#53=EDGE_LOOP('',(#189));
#54=EDGE_LOOP('',(#190));
#55=EDGE_LOOP('',(#191,#192,#193,#194));
#56=EDGE_LOOP('',(#195));
#57=EDGE_LOOP('',(#196));
#58=EDGE_LOOP('',(#197));
#59=EDGE_LOOP('',(#198));
#60=EDGE_LOOP('',(#199));
#61=LINE('',#327,#74);
#62=LINE('',#333,#75);
#63=LINE('',#339,#76);
#64=LINE('',#345,#77);
#65=LINE('',#351,#78);
#66=LINE('',#358,#79);
#67=LINE('',#361,#80);
#68=LINE('',#364,#81);
#69=LINE('',#366,#82);
#70=LINE('',#367,#83);
#71=LINE('',#372,#84);
#72=LINE('',#375,#85);
#73=LINE('',#376,#86);
#74=VECTOR('',#263,3.3235);
#75=VECTOR('',#270,3.1);
#76=VECTOR('',#277,3.1);
#77=VECTOR('',#284,3.1);
#78=VECTOR('',#291,3.1);
#79=VECTOR('',#298,10.);
#80=VECTOR('',#301,10.);
#81=VECTOR('',#304,10.);
#82=VECTOR('',#305,10.);
#83=VECTOR('',#306,10.);
#84=VECTOR('',#311,10.);
#85=VECTOR('',#316,10.);
#86=VECTOR('',#317,10.);
#87=CIRCLE('',#233,3.3235);
#88=CIRCLE('',#234,3.3235);
#89=CIRCLE('',#236,3.1);
#90=CIRCLE('',#237,3.1);
#91=CIRCLE('',#239,3.1);
#92=CIRCLE('',#240,3.1);
#93=CIRCLE('',#242,3.1);
#94=CIRCLE('',#243,3.1);
#95=CIRCLE('',#245,3.1);
#96=CIRCLE('',#246,3.1);
#97=CIRCLE('',#248,12.5);
#98=CIRCLE('',#249,12.5);
#99=CIRCLE('',#252,12.5);
#100=CIRCLE('',#253,12.5);
#101=VERTEX_POINT('',#324);
#102=VERTEX_POINT('',#326);
#103=VERTEX_POINT('',#330);
#104=VERTEX_POINT('',#332);
#105=VERTEX_POINT('',#336);
#106=VERTEX_POINT('',#338);
#107=VERTEX_POINT('',#342);
#108=VERTEX_POINT('',#344);
#109=VERTEX_POINT('',#348);
#110=VERTEX_POINT('',#350);
#111=VERTEX_POINT('',#354);
#112=VERTEX_POINT('',#355);
#113=VERTEX_POINT('',#357);
#114=VERTEX_POINT('',#359);
#115=VERTEX_POINT('',#363);
#116=VERTEX_POINT('',#365);
#117=VERTEX_POINT('',#369);
#118=VERTEX_POINT('',#371);
#119=EDGE_CURVE('',#101,#101,#87,.T.);
#120=EDGE_CURVE('',#101,#102,#61,.T.);
#121=EDGE_CURVE('',#102,#102,#88,.T.);
#122=EDGE_CURVE('',#103,#103,#89,.T.);
#123=EDGE_CURVE('',#103,#104,#62,.T.);
#124=EDGE_CURVE('',#104,#104,#90,.T.);
#125=EDGE_CURVE('',#105,#105,#91,.T.);
#126=EDGE_CURVE('',#105,#106,#63,.T.);
#127=EDGE_CURVE('',#106,#106,#92,.T.);
#128=EDGE_CURVE('',#107,#107,#93,.T.);
#129=EDGE_CURVE('',#107,#108,#64,.T.);
#130=EDGE_CURVE('',#108,#108,#94,.T.);
#131=EDGE_CURVE('',#109,#109,#95,.T.);
#132=EDGE_CURVE('',#109,#110,#65,.T.);
#133=EDGE_CURVE('',#110,#110,#96,.T.);
#134=EDGE_CURVE('',#111,#112,#97,.T.);
#135=EDGE_CURVE('',#113,#112,#66,.T.);
#136=EDGE_CURVE('',#113,#114,#98,.T.);
#137=EDGE_CURVE('',#114,#111,#67,.T.);
#138=EDGE_CURVE('',#112,#115,#68,.T.);
#139=EDGE_CURVE('',#116,#115,#69,.T.);
#140=EDGE_CURVE('',#116,#113,#70,.T.);
#141=EDGE_CURVE('',#115,#117,#99,.T.);
#142=EDGE_CURVE('',#118,#117,#71,.T.);
#143=EDGE_CURVE('',#118,#116,#100,.T.);
#144=EDGE_CURVE('',#117,#111,#72,.T.);
#145=EDGE_CURVE('',#114,#118,#73,.T.);
#146=ORIENTED_EDGE('',*,*,#119,.F.);
#147=ORIENTED_EDGE('',*,*,#120,.T.);
#148=ORIENTED_EDGE('',*,*,#121,.F.);
#149=ORIENTED_EDGE('',*,*,#120,.F.);
#150=ORIENTED_EDGE('',*,*,#122,.F.);
#151=ORIENTED_EDGE('',*,*,#123,.T.);
#152=ORIENTED_EDGE('',*,*,#124,.F.);
#153=ORIENTED_EDGE('',*,*,#123,.F.);
#154=ORIENTED_EDGE('',*,*,#125,.F.);
#155=ORIENTED_EDGE('',*,*,#126,.T.);
#156=ORIENTED_EDGE('',*,*,#127,.F.);
#157=ORIENTED_EDGE('',*,*,#126,.F.);
#158=ORIENTED_EDGE('',*,*,#128,.F.);
#159=ORIENTED_EDGE('',*,*,#129,.T.);
#160=ORIENTED_EDGE('',*,*,#130,.F.);
#161=ORIENTED_EDGE('',*,*,#129,.F.);
#162=ORIENTED_EDGE('',*,*,#131,.F.);
#163=ORIENTED_EDGE('',*,*,#132,.T.);
#164=ORIENTED_EDGE('',*,*,#133,.F.);
#165=ORIENTED_EDGE('',*,*,#132,.F.);
#166=ORIENTED_EDGE('',*,*,#134,.T.);
#167=ORIENTED_EDGE('',*,*,#135,.F.);
#168=ORIENTED_EDGE('',*,*,#136,.T.);
#169=ORIENTED_EDGE('',*,*,#137,.T.);
#170=ORIENTED_EDGE('',*,*,#138,.T.);
#171=ORIENTED_EDGE('',*,*,#139,.F.);
#172=ORIENTED_EDGE('',*,*,#140,.T.);
#173=ORIENTED_EDGE('',*,*,#135,.T.);
#174=ORIENTED_EDGE('',*,*,#141,.T.);
#175=ORIENTED_EDGE('',*,*,#142,.F.);
#176=ORIENTED_EDGE('',*,*,#143,.T.);
#177=ORIENTED_EDGE('',*,*,#139,.T.);
#178=ORIENTED_EDGE('',*,*,#144,.T.);
#179=ORIENTED_EDGE('',*,*,#137,.F.);
#180=ORIENTED_EDGE('',*,*,#145,.T.);
#181=ORIENTED_EDGE('',*,*,#142,.T.);
#182=ORIENTED_EDGE('',*,*,#145,.F.);
#183=ORIENTED_EDGE('',*,*,#136,.F.);
#184=ORIENTED_EDGE('',*,*,#140,.F.);
#185=ORIENTED_EDGE('',*,*,#143,.F.);
#186=ORIENTED_EDGE('',*,*,#119,.T.);
#187=ORIENTED_EDGE('',*,*,#122,.T.);
#188=ORIENTED_EDGE('',*,*,#125,.T.);
#189=ORIENTED_EDGE('',*,*,#128,.T.);
#190=ORIENTED_EDGE('',*,*,#131,.T.);
#191=ORIENTED_EDGE('',*,*,#134,.F.);
#192=ORIENTED_EDGE('',*,*,#144,.F.);
#193=ORIENTED_EDGE('',*,*,#141,.F.);
#194=ORIENTED_EDGE('',*,*,#138,.F.);
#195=ORIENTED_EDGE('',*,*,#121,.T.);
#196=ORIENTED_EDGE('',*,*,#124,.T.);
#197=ORIENTED_EDGE('',*,*,#127,.T.);
#198=ORIENTED_EDGE('',*,*,#130,.T.);
#199=ORIENTED_EDGE('',*,*,#133,.T.);
#200=CYLINDRICAL_SURFACE('',#232,3.3235);
#201=CYLINDRICAL_SURFACE('',#235,3.1);
#202=CYLINDRICAL_SURFACE('',#238,3.1);
#203=CYLINDRICAL_SURFACE('',#241,3.1);
#204=CYLINDRICAL_SURFACE('',#244,3.1);
#205=CYLINDRICAL_SURFACE('',#247,12.5);
#206=CYLINDRICAL_SURFACE('',#251,12.5);
#207=ADVANCED_FACE('',(#29),#200,.F.);
#208=ADVANCED_FACE('',(#30),#201,.F.);
#209=ADVANCED_FACE('',(#31),#202,.F.);
#210=ADVANCED_FACE('',(#32),#203,.F.);
#211=ADVANCED_FACE('',(#33),#204,.F.);
#212=ADVANCED_FACE('',(#34),#205,.T.);
#213=ADVANCED_FACE('',(#35),#25,.T.);
#214=ADVANCED_FACE('',(#36),#206,.T.);
#215=ADVANCED_FACE('',(#37),#26,.T.);
#216=ADVANCED_FACE('',(#38,#15,#16,#17,#18,#19),#27,.F.);
#217=ADVANCED_FACE('',(#39,#20,#21,#22,#23,#24),#28,.T.);
#218=CLOSED_SHELL('',(#207,#208,#209,#210,#211,#212,#213,#214,#215,#216,
#217));
#219=DERIVED_UNIT_ELEMENT(#221,1.);
#220=DERIVED_UNIT_ELEMENT(#384,-3.);
#221=(
MASS_UNIT()
NAMED_UNIT(*)
SI_UNIT($,.GRAM.)
);
#222=DERIVED_UNIT((#219,#220));
#223=MEASURE_REPRESENTATION_ITEM('density measure',
POSITIVE_RATIO_MEASURE(8.),#222);
#224=PROPERTY_DEFINITION_REPRESENTATION(#229,#226);
#225=PROPERTY_DEFINITION_REPRESENTATION(#230,#227);
#226=REPRESENTATION('material name',(#228),#381);
#227=REPRESENTATION('density',(#223),#381);
#228=DESCRIPTIVE_REPRESENTATION_ITEM('Acier inox 316L',
'Acier inox 316L');
#229=PROPERTY_DEFINITION('material property','material name',#391);
#230=PROPERTY_DEFINITION('material property','density of part',#391);
#231=AXIS2_PLACEMENT_3D('placement',#322,#257,#258);
#232=AXIS2_PLACEMENT_3D('',#323,#259,#260);
#233=AXIS2_PLACEMENT_3D('',#325,#261,#262);
#234=AXIS2_PLACEMENT_3D('',#328,#264,#265);
#235=AXIS2_PLACEMENT_3D('',#329,#266,#267);
#236=AXIS2_PLACEMENT_3D('',#331,#268,#269);
#237=AXIS2_PLACEMENT_3D('',#334,#271,#272);
#238=AXIS2_PLACEMENT_3D('',#335,#273,#274);
#239=AXIS2_PLACEMENT_3D('',#337,#275,#276);
#240=AXIS2_PLACEMENT_3D('',#340,#278,#279);
#241=AXIS2_PLACEMENT_3D('',#341,#280,#281);
#242=AXIS2_PLACEMENT_3D('',#343,#282,#283);
#243=AXIS2_PLACEMENT_3D('',#346,#285,#286);
#244=AXIS2_PLACEMENT_3D('',#347,#287,#288);
#245=AXIS2_PLACEMENT_3D('',#349,#289,#290);
#246=AXIS2_PLACEMENT_3D('',#352,#292,#293);
#247=AXIS2_PLACEMENT_3D('',#353,#294,#295);
#248=AXIS2_PLACEMENT_3D('',#356,#296,#297);
#249=AXIS2_PLACEMENT_3D('',#360,#299,#300);
#250=AXIS2_PLACEMENT_3D('',#362,#302,#303);
#251=AXIS2_PLACEMENT_3D('',#368,#307,#308);
#252=AXIS2_PLACEMENT_3D('',#370,#309,#310);
#253=AXIS2_PLACEMENT_3D('',#373,#312,#313);
#254=AXIS2_PLACEMENT_3D('',#374,#314,#315);
#255=AXIS2_PLACEMENT_3D('',#377,#318,#319);
#256=AXIS2_PLACEMENT_3D('',#378,#320,#321);
#257=DIRECTION('axis',(0.,0.,1.));
#258=DIRECTION('refdir',(1.,0.,0.));
#259=DIRECTION('center_axis',(0.,0.,1.));
#260=DIRECTION('ref_axis',(1.,0.,0.));
#261=DIRECTION('center_axis',(0.,0.,1.));
#262=DIRECTION('ref_axis',(1.,0.,0.));
#263=DIRECTION('',(0.,0.,1.));
#264=DIRECTION('center_axis',(0.,0.,-1.));
#265=DIRECTION('ref_axis',(1.,0.,0.));
#266=DIRECTION('center_axis',(0.,0.,1.));
#267=DIRECTION('ref_axis',(1.,0.,0.));
#268=DIRECTION('center_axis',(0.,0.,1.));
#269=DIRECTION('ref_axis',(1.,0.,0.));
#270=DIRECTION('',(0.,0.,1.));
#271=DIRECTION('center_axis',(0.,0.,-1.));
#272=DIRECTION('ref_axis',(1.,0.,0.));
#273=DIRECTION('center_axis',(0.,0.,1.));
#274=DIRECTION('ref_axis',(1.,0.,0.));
#275=DIRECTION('center_axis',(0.,0.,1.));
#276=DIRECTION('ref_axis',(1.,0.,0.));
#277=DIRECTION('',(0.,0.,1.));
#278=DIRECTION('center_axis',(0.,0.,-1.));
#279=DIRECTION('ref_axis',(1.,0.,0.));
#280=DIRECTION('center_axis',(0.,0.,1.));
#281=DIRECTION('ref_axis',(1.,0.,0.));
#282=DIRECTION('center_axis',(0.,0.,1.));
#283=DIRECTION('ref_axis',(1.,0.,0.));
#284=DIRECTION('',(0.,0.,1.));
#285=DIRECTION('center_axis',(0.,0.,-1.));
#286=DIRECTION('ref_axis',(1.,0.,0.));
#287=DIRECTION('center_axis',(0.,0.,1.));
#288=DIRECTION('ref_axis',(1.,0.,0.));
#289=DIRECTION('center_axis',(0.,0.,1.));
#290=DIRECTION('ref_axis',(1.,0.,0.));
#291=DIRECTION('',(0.,0.,1.));
#292=DIRECTION('center_axis',(0.,0.,-1.));
#293=DIRECTION('ref_axis',(1.,0.,0.));
#294=DIRECTION('center_axis',(0.,0.,1.));
#295=DIRECTION('ref_axis',(0.,1.,0.));
#296=DIRECTION('center_axis',(0.,0.,-1.));
#297=DIRECTION('ref_axis',(0.,1.,0.));
#298=DIRECTION('',(0.,0.,1.));
#299=DIRECTION('center_axis',(0.,0.,1.));
#300=DIRECTION('ref_axis',(0.,1.,0.));
#301=DIRECTION('',(0.,0.,1.));
#302=DIRECTION('center_axis',(-2.96059473233375E-17,1.,0.));
#303=DIRECTION('ref_axis',(0.,0.,1.));
#304=DIRECTION('',(1.,2.96059473233375E-17,0.));
#305=DIRECTION('',(0.,0.,1.));
#306=DIRECTION('',(-1.,-2.96059473233375E-17,0.));
#307=DIRECTION('center_axis',(0.,0.,1.));
#308=DIRECTION('ref_axis',(0.,-1.,0.));
#309=DIRECTION('center_axis',(0.,0.,-1.));
#310=DIRECTION('ref_axis',(0.,-1.,0.));
#311=DIRECTION('',(0.,0.,1.));
#312=DIRECTION('center_axis',(0.,0.,1.));
#313=DIRECTION('ref_axis',(0.,-1.,0.));
#314=DIRECTION('center_axis',(-8.88178419700125E-17,-1.,0.));
#315=DIRECTION('ref_axis',(0.,0.,-1.));
#316=DIRECTION('',(-1.,8.88178419700125E-17,0.));
#317=DIRECTION('',(1.,-8.88178419700125E-17,0.));
#318=DIRECTION('center_axis',(0.,0.,1.));
#319=DIRECTION('ref_axis',(1.,0.,0.));
#320=DIRECTION('center_axis',(0.,0.,1.));
#321=DIRECTION('ref_axis',(1.,0.,0.));
#322=CARTESIAN_POINT('',(0.,0.,0.));
#323=CARTESIAN_POINT('Origin',(0.,0.,103.198837202751));
#324=CARTESIAN_POINT('',(-3.3235,-4.07011363696623E-16,0.));
#325=CARTESIAN_POINT('Origin',(0.,0.,0.));
#326=CARTESIAN_POINT('',(-3.3235,4.07011363696623E-16,5.));
#327=CARTESIAN_POINT('',(-3.3235,-4.07011363696623E-16,103.198837202751));
#328=CARTESIAN_POINT('Origin',(0.,0.,5.));
#329=CARTESIAN_POINT('Origin',(25.,5.,103.198837202751));
#330=CARTESIAN_POINT('',(21.9,5.,0.));
#331=CARTESIAN_POINT('Origin',(25.,5.,0.));
#332=CARTESIAN_POINT('',(21.9,5.,5.));
#333=CARTESIAN_POINT('',(21.9,5.,103.198837202751));
#334=CARTESIAN_POINT('Origin',(25.,5.,5.));
#335=CARTESIAN_POINT('Origin',(-36.,5.,103.198837202751));
#336=CARTESIAN_POINT('',(-39.1,5.,0.));
#337=CARTESIAN_POINT('Origin',(-36.,5.,0.));
#338=CARTESIAN_POINT('',(-39.1,5.,5.));
#339=CARTESIAN_POINT('',(-39.1,5.,103.198837202751));
#340=CARTESIAN_POINT('Origin',(-36.,5.,5.));
#341=CARTESIAN_POINT('Origin',(-25.,-5.,103.198837202751));
#342=CARTESIAN_POINT('',(-28.1,-5.,0.));
#343=CARTESIAN_POINT('Origin',(-25.,-5.,0.));
#344=CARTESIAN_POINT('',(-28.1,-5.,5.));
#345=CARTESIAN_POINT('',(-28.1,-5.,103.198837202751));
#346=CARTESIAN_POINT('Origin',(-25.,-5.,5.));
#347=CARTESIAN_POINT('Origin',(36.,-5.,103.198837202751));
#348=CARTESIAN_POINT('',(32.9,-5.,0.));
#349=CARTESIAN_POINT('Origin',(36.,-5.,0.));
#350=CARTESIAN_POINT('',(32.9,-5.,5.));
#351=CARTESIAN_POINT('',(32.9,-5.,103.198837202751));
#352=CARTESIAN_POINT('Origin',(36.,-5.,5.));
#353=CARTESIAN_POINT('Origin',(-37.5,0.,0.));
#354=CARTESIAN_POINT('',(-37.5,-12.5,5.));
#355=CARTESIAN_POINT('',(-37.5,12.5,5.));
#356=CARTESIAN_POINT('Origin',(-37.5,0.,5.));
#357=CARTESIAN_POINT('',(-37.5,12.5,0.));
#358=CARTESIAN_POINT('',(-37.5,12.5,0.));
#359=CARTESIAN_POINT('',(-37.5,-12.5,0.));
#360=CARTESIAN_POINT('Origin',(-37.5,0.,0.));
#361=CARTESIAN_POINT('',(-37.5,-12.5,0.));
#362=CARTESIAN_POINT('Origin',(-37.5,12.5,0.));
#363=CARTESIAN_POINT('',(37.5,12.5,5.));
#364=CARTESIAN_POINT('',(37.5,12.5,5.));
#365=CARTESIAN_POINT('',(37.5,12.5,0.));
#366=CARTESIAN_POINT('',(37.5,12.5,0.));
#367=CARTESIAN_POINT('',(37.5,12.5,0.));
#368=CARTESIAN_POINT('Origin',(37.5,0.,0.));
#369=CARTESIAN_POINT('',(37.5,-12.5,5.));
#370=CARTESIAN_POINT('Origin',(37.5,0.,5.));
#371=CARTESIAN_POINT('',(37.5,-12.5,0.));
#372=CARTESIAN_POINT('',(37.5,-12.5,0.));
#373=CARTESIAN_POINT('Origin',(37.5,0.,0.));
#374=CARTESIAN_POINT('Origin',(37.5,-12.5,0.));
#375=CARTESIAN_POINT('',(-37.5,-12.5,5.));
#376=CARTESIAN_POINT('',(-37.5,-12.5,0.));
#377=CARTESIAN_POINT('Origin',(6.66133814775094E-15,-6.59167435513195E-16,
0.));
#378=CARTESIAN_POINT('Origin',(6.66133814775094E-15,-4.16370281378423E-16,
5.));
#379=UNCERTAINTY_MEASURE_WITH_UNIT(LENGTH_MEASURE(0.01),#383,
'DISTANCE_ACCURACY_VALUE',
'Maximum model space distance between geometric entities at asserted c
onnectivities');
#380=UNCERTAINTY_MEASURE_WITH_UNIT(LENGTH_MEASURE(0.01),#383,
'DISTANCE_ACCURACY_VALUE',
'Maximum model space distance between geometric entities at asserted c
onnectivities');
#381=(
GEOMETRIC_REPRESENTATION_CONTEXT(3)
GLOBAL_UNCERTAINTY_ASSIGNED_CONTEXT((#379))
GLOBAL_UNIT_ASSIGNED_CONTEXT((#383,#385,#386))
REPRESENTATION_CONTEXT('','3D')
);
#382=(
GEOMETRIC_REPRESENTATION_CONTEXT(3)
GLOBAL_UNCERTAINTY_ASSIGNED_CONTEXT((#380))
GLOBAL_UNIT_ASSIGNED_CONTEXT((#383,#385,#386))
REPRESENTATION_CONTEXT('','3D')
);
#383=(
LENGTH_UNIT()
NAMED_UNIT(*)
SI_UNIT(.MILLI.,.METRE.)
);
#384=(
LENGTH_UNIT()
NAMED_UNIT(*)
SI_UNIT(.CENTI.,.METRE.)
);
#385=(
NAMED_UNIT(*)
PLANE_ANGLE_UNIT()
SI_UNIT($,.RADIAN.)
);
#386=(
NAMED_UNIT(*)
SI_UNIT($,.STERADIAN.)
SOLID_ANGLE_UNIT()
);
#387=SHAPE_DEFINITION_REPRESENTATION(#388,#389);
#388=PRODUCT_DEFINITION_SHAPE('',$,#391);
#389=SHAPE_REPRESENTATION('',(#231),#381);
#390=PRODUCT_DEFINITION_CONTEXT('part definition',#395,'design');
#391=PRODUCT_DEFINITION('0026XA4','0026XA4',#392,#390);
#392=PRODUCT_DEFINITION_FORMATION('',$,#397);
#393=PRODUCT_RELATED_PRODUCT_CATEGORY('0026XA4','0026XA4',(#397));
#394=APPLICATION_PROTOCOL_DEFINITION('international standard',
'automotive_design',2009,#395);
#395=APPLICATION_CONTEXT(
'Core Data for Automotive Mechanical Design Process');
#396=PRODUCT_CONTEXT('part definition',#395,'mechanical');
#397=PRODUCT('0026XA4','0026XA4',
'Platine sur chant pour vis M8 - inox A4',(#396));
#398=PRESENTATION_STYLE_ASSIGNMENT((#399));
#399=SURFACE_STYLE_USAGE(.BOTH.,#402);
#400=SURFACE_STYLE_RENDERING_WITH_PROPERTIES($,#406,(#401));
#401=SURFACE_STYLE_TRANSPARENT(0.);
#402=SURFACE_SIDE_STYLE('',(#403,#400));
#403=SURFACE_STYLE_FILL_AREA(#404);
#404=FILL_AREA_STYLE('',(#405));
#405=FILL_AREA_STYLE_COLOUR('',#406);
#406=COLOUR_RGB('',0.745098039215686,0.737254901960784,0.729411764705882);
ENDSEC;
END-ISO-10303-21;
