ISO-10303-21;
HEADER;
/* Generated by software containing ST-Developer
 * from STEP Tools, Inc. (www.steptools.com) 
 */

FILE_DESCRIPTION(
/* description */ (''),
/* implementation_level */ '2;1');

FILE_NAME(
/* name */ 'R:\\BE\\Inventor\\PRODUITS\\STP\\26.stp',
/* time_stamp */ '2019-10-29T13:53:04+01:00',
/* author */ ('DBARI'),
/* organization */ (''),
/* preprocessor_version */ 'ST-DEVELOPER v17.2',
/* originating_system */ 'Autodesk Inventor 2019',
/* authorisation */ '');

FILE_SCHEMA (('AUTOMOTIVE_DESIGN { 1 0 10303 214 3 1 1 }'));
ENDSEC;

DATA;
#10=MECHANICAL_DESIGN_GEOMETRIC_PRESENTATION_REPRESENTATION('',(#13),#660);
#11=SHAPE_REPRESENTATION_RELATIONSHIP('SRR','None',#667,#12);
#12=ADVANCED_BREP_SHAPE_REPRESENTATION('',(#14),#659);
#13=STYLED_ITEM('',(#676),#14);
#14=MANIFOLD_SOLID_BREP('Solide1',#364);
#15=TOROIDAL_SURFACE('',#412,4.3235,1.);
#16=TOROIDAL_SURFACE('',#418,5.5,1.);
#17=CYLINDRICAL_SURFACE('',#394,3.1);
#18=CYLINDRICAL_SURFACE('',#399,3.1);
#19=CYLINDRICAL_SURFACE('',#404,3.1);
#20=CYLINDRICAL_SURFACE('',#409,3.1);
#21=CYLINDRICAL_SURFACE('',#416,3.3235);
#22=CYLINDRICAL_SURFACE('',#422,4.5);
#23=CYLINDRICAL_SURFACE('',#431,10.25);
#24=CYLINDRICAL_SURFACE('',#433,10.25);
#25=FACE_BOUND('',#63,.T.);
#26=FACE_BOUND('',#64,.T.);
#27=FACE_BOUND('',#65,.T.);
#28=FACE_BOUND('',#66,.T.);
#29=FACE_BOUND('',#67,.T.);
#30=FACE_BOUND('',#80,.T.);
#31=FACE_BOUND('',#81,.T.);
#32=FACE_BOUND('',#82,.T.);
#33=FACE_BOUND('',#83,.T.);
#34=FACE_BOUND('',#84,.T.);
#35=FACE_BOUND('',#87,.T.);
#36=PLANE('',#387);
#37=PLANE('',#424);
#38=PLANE('',#429);
#39=PLANE('',#430);
#40=PLANE('',#432);
#41=FACE_OUTER_BOUND('',#61,.T.);
#42=FACE_OUTER_BOUND('',#62,.T.);
#43=FACE_OUTER_BOUND('',#68,.T.);
#44=FACE_OUTER_BOUND('',#69,.T.);
#45=FACE_OUTER_BOUND('',#70,.T.);
#46=FACE_OUTER_BOUND('',#71,.T.);
#47=FACE_OUTER_BOUND('',#72,.T.);
#48=FACE_OUTER_BOUND('',#73,.T.);
#49=FACE_OUTER_BOUND('',#74,.T.);
#50=FACE_OUTER_BOUND('',#75,.T.);
#51=FACE_OUTER_BOUND('',#76,.T.);
#52=FACE_OUTER_BOUND('',#77,.T.);
#53=FACE_OUTER_BOUND('',#78,.T.);
#54=FACE_OUTER_BOUND('',#79,.T.);
#55=FACE_OUTER_BOUND('',#85,.T.);
#56=FACE_OUTER_BOUND('',#86,.T.);
#57=FACE_OUTER_BOUND('',#88,.T.);
#58=FACE_OUTER_BOUND('',#89,.T.);
#59=FACE_OUTER_BOUND('',#90,.T.);
#60=FACE_OUTER_BOUND('',#91,.T.);
#61=EDGE_LOOP('',(#241,#242,#243,#244));
#62=EDGE_LOOP('',(#245,#246,#247,#248));
#63=EDGE_LOOP('',(#249));
#64=EDGE_LOOP('',(#250));
#65=EDGE_LOOP('',(#251));
#66=EDGE_LOOP('',(#252));
#67=EDGE_LOOP('',(#253));
#68=EDGE_LOOP('',(#254,#255,#256,#257,#258));
#69=EDGE_LOOP('',(#259,#260,#261,#262));
#70=EDGE_LOOP('',(#263,#264,#265,#266,#267));
#71=EDGE_LOOP('',(#268,#269,#270,#271));
#72=EDGE_LOOP('',(#272,#273,#274,#275,#276));
#73=EDGE_LOOP('',(#277,#278,#279,#280));
#74=EDGE_LOOP('',(#281,#282,#283,#284,#285));
#75=EDGE_LOOP('',(#286,#287,#288,#289,#290));
#76=EDGE_LOOP('',(#291,#292,#293,#294,#295));
#77=EDGE_LOOP('',(#296,#297,#298,#299));
#78=EDGE_LOOP('',(#300,#301,#302,#303));
#79=EDGE_LOOP('',(#304,#305,#306,#307));
#80=EDGE_LOOP('',(#308,#309));
#81=EDGE_LOOP('',(#310,#311));
#82=EDGE_LOOP('',(#312,#313));
#83=EDGE_LOOP('',(#314,#315));
#84=EDGE_LOOP('',(#316));
#85=EDGE_LOOP('',(#317,#318,#319,#320));
#86=EDGE_LOOP('',(#321));
#87=EDGE_LOOP('',(#322));
#88=EDGE_LOOP('',(#323,#324,#325,#326));
#89=EDGE_LOOP('',(#327,#328,#329,#330));
#90=EDGE_LOOP('',(#331,#332,#333,#334));
#91=EDGE_LOOP('',(#335,#336,#337,#338));
#92=LINE('',#560,#111);
#93=LINE('',#567,#112);
#94=LINE('',#570,#113);
#95=LINE('',#584,#114);
#96=LINE('',#587,#115);
#97=LINE('',#594,#116);
#98=LINE('',#597,#117);
#99=LINE('',#604,#118);
#100=LINE('',#607,#119);
#101=LINE('',#614,#120);
#102=LINE('',#623,#121);
#103=LINE('',#634,#122);
#104=LINE('',#638,#123);
#105=LINE('',#642,#124);
#106=LINE('',#646,#125);
#107=LINE('',#650,#126);
#108=LINE('',#651,#127);
#109=LINE('',#653,#128);
#110=LINE('',#655,#129);
#111=VECTOR('',#440,3.6);
#112=VECTOR('',#447,10.);
#113=VECTOR('',#450,10.);
#114=VECTOR('',#465,3.1);
#115=VECTOR('',#468,3.6);
#116=VECTOR('',#477,3.1);
#117=VECTOR('',#480,3.6);
#118=VECTOR('',#489,3.1);
#119=VECTOR('',#492,3.6);
#120=VECTOR('',#501,3.1);
#121=VECTOR('',#512,3.3235);
#122=VECTOR('',#527,4.5);
#123=VECTOR('',#530,10.);
#124=VECTOR('',#533,10.);
#125=VECTOR('',#538,4.375);
#126=VECTOR('',#545,10.);
#127=VECTOR('',#546,10.);
#128=VECTOR('',#549,10.);
#129=VECTOR('',#552,10.);
#130=CIRCLE('',#385,4.1);
#131=CIRCLE('',#386,3.1);
#132=CIRCLE('',#388,10.25);
#133=CIRCLE('',#389,10.25);
#134=CIRCLE('',#390,4.1);
#135=CIRCLE('',#391,4.1);
#136=CIRCLE('',#392,4.3235);
#137=CIRCLE('',#393,4.1);
#138=CIRCLE('',#395,3.1);
#139=CIRCLE('',#396,3.1);
#140=CIRCLE('',#398,3.1);
#141=CIRCLE('',#400,3.1);
#142=CIRCLE('',#401,3.1);
#143=CIRCLE('',#403,3.1);
#144=CIRCLE('',#405,3.1);
#145=CIRCLE('',#406,3.1);
#146=CIRCLE('',#408,3.1);
#147=CIRCLE('',#410,3.1);
#148=CIRCLE('',#411,3.1);
#149=CIRCLE('',#413,1.);
#150=CIRCLE('',#414,3.3235);
#151=CIRCLE('',#415,3.3235);
#152=CIRCLE('',#417,3.3235);
#153=CIRCLE('',#419,4.5);
#154=CIRCLE('',#420,1.);
#155=CIRCLE('',#421,5.5);
#156=CIRCLE('',#423,4.5);
#157=CIRCLE('',#425,10.25);
#158=CIRCLE('',#426,10.25);
#159=CIRCLE('',#428,4.25);
#160=VERTEX_POINT('',#557);
#161=VERTEX_POINT('',#559);
#162=VERTEX_POINT('',#563);
#163=VERTEX_POINT('',#564);
#164=VERTEX_POINT('',#566);
#165=VERTEX_POINT('',#568);
#166=VERTEX_POINT('',#571);
#167=VERTEX_POINT('',#573);
#168=VERTEX_POINT('',#575);
#169=VERTEX_POINT('',#577);
#170=VERTEX_POINT('',#580);
#171=VERTEX_POINT('',#581);
#172=VERTEX_POINT('',#586);
#173=VERTEX_POINT('',#590);
#174=VERTEX_POINT('',#591);
#175=VERTEX_POINT('',#596);
#176=VERTEX_POINT('',#600);
#177=VERTEX_POINT('',#601);
#178=VERTEX_POINT('',#606);
#179=VERTEX_POINT('',#610);
#180=VERTEX_POINT('',#611);
#181=VERTEX_POINT('',#616);
#182=VERTEX_POINT('',#618);
#183=VERTEX_POINT('',#622);
#184=VERTEX_POINT('',#626);
#185=VERTEX_POINT('',#628);
#186=VERTEX_POINT('',#632);
#187=VERTEX_POINT('',#636);
#188=VERTEX_POINT('',#637);
#189=VERTEX_POINT('',#639);
#190=VERTEX_POINT('',#641);
#191=VERTEX_POINT('',#645);
#192=EDGE_CURVE('',#160,#160,#130,.T.);
#193=EDGE_CURVE('',#160,#161,#92,.T.);
#194=EDGE_CURVE('',#161,#161,#131,.T.);
#195=EDGE_CURVE('',#162,#163,#132,.T.);
#196=EDGE_CURVE('',#164,#162,#93,.T.);
#197=EDGE_CURVE('',#165,#164,#133,.T.);
#198=EDGE_CURVE('',#163,#165,#94,.T.);
#199=EDGE_CURVE('',#166,#166,#134,.T.);
#200=EDGE_CURVE('',#167,#167,#135,.T.);
#201=EDGE_CURVE('',#168,#168,#136,.T.);
#202=EDGE_CURVE('',#169,#169,#137,.T.);
#203=EDGE_CURVE('',#170,#171,#138,.T.);
#204=EDGE_CURVE('',#171,#170,#139,.T.);
#205=EDGE_CURVE('',#171,#161,#95,.T.);
#206=EDGE_CURVE('',#166,#172,#96,.T.);
#207=EDGE_CURVE('',#172,#172,#140,.T.);
#208=EDGE_CURVE('',#173,#174,#141,.T.);
#209=EDGE_CURVE('',#174,#173,#142,.T.);
#210=EDGE_CURVE('',#174,#172,#97,.T.);
#211=EDGE_CURVE('',#169,#175,#98,.T.);
#212=EDGE_CURVE('',#175,#175,#143,.T.);
#213=EDGE_CURVE('',#176,#177,#144,.T.);
#214=EDGE_CURVE('',#177,#176,#145,.T.);
#215=EDGE_CURVE('',#177,#175,#99,.T.);
#216=EDGE_CURVE('',#167,#178,#100,.T.);
#217=EDGE_CURVE('',#178,#178,#146,.T.);
#218=EDGE_CURVE('',#179,#180,#147,.T.);
#219=EDGE_CURVE('',#180,#179,#148,.T.);
#220=EDGE_CURVE('',#180,#178,#101,.T.);
#221=EDGE_CURVE('',#168,#181,#149,.T.);
#222=EDGE_CURVE('',#181,#182,#150,.T.);
#223=EDGE_CURVE('',#182,#181,#151,.T.);
#224=EDGE_CURVE('',#182,#183,#102,.T.);
#225=EDGE_CURVE('',#183,#183,#152,.T.);
#226=EDGE_CURVE('',#184,#184,#153,.T.);
#227=EDGE_CURVE('',#184,#185,#154,.T.);
#228=EDGE_CURVE('',#185,#185,#155,.T.);
#229=EDGE_CURVE('',#186,#186,#156,.T.);
#230=EDGE_CURVE('',#186,#184,#103,.T.);
#231=EDGE_CURVE('',#187,#188,#104,.T.);
#232=EDGE_CURVE('',#189,#187,#157,.T.);
#233=EDGE_CURVE('',#190,#189,#105,.T.);
#234=EDGE_CURVE('',#188,#190,#158,.T.);
#235=EDGE_CURVE('',#186,#191,#106,.T.);
#236=EDGE_CURVE('',#191,#191,#159,.T.);
#237=EDGE_CURVE('',#164,#188,#107,.T.);
#238=EDGE_CURVE('',#162,#187,#108,.T.);
#239=EDGE_CURVE('',#165,#190,#109,.T.);
#240=EDGE_CURVE('',#163,#189,#110,.T.);
#241=ORIENTED_EDGE('',*,*,#192,.T.);
#242=ORIENTED_EDGE('',*,*,#193,.T.);
#243=ORIENTED_EDGE('',*,*,#194,.T.);
#244=ORIENTED_EDGE('',*,*,#193,.F.);
#245=ORIENTED_EDGE('',*,*,#195,.F.);
#246=ORIENTED_EDGE('',*,*,#196,.F.);
#247=ORIENTED_EDGE('',*,*,#197,.F.);
#248=ORIENTED_EDGE('',*,*,#198,.F.);
#249=ORIENTED_EDGE('',*,*,#199,.F.);
#250=ORIENTED_EDGE('',*,*,#200,.F.);
#251=ORIENTED_EDGE('',*,*,#201,.F.);
#252=ORIENTED_EDGE('',*,*,#202,.F.);
#253=ORIENTED_EDGE('',*,*,#192,.F.);
#254=ORIENTED_EDGE('',*,*,#203,.F.);
#255=ORIENTED_EDGE('',*,*,#204,.F.);
#256=ORIENTED_EDGE('',*,*,#205,.T.);
#257=ORIENTED_EDGE('',*,*,#194,.F.);
#258=ORIENTED_EDGE('',*,*,#205,.F.);
#259=ORIENTED_EDGE('',*,*,#199,.T.);
#260=ORIENTED_EDGE('',*,*,#206,.T.);
#261=ORIENTED_EDGE('',*,*,#207,.T.);
#262=ORIENTED_EDGE('',*,*,#206,.F.);
#263=ORIENTED_EDGE('',*,*,#208,.F.);
#264=ORIENTED_EDGE('',*,*,#209,.F.);
#265=ORIENTED_EDGE('',*,*,#210,.T.);
#266=ORIENTED_EDGE('',*,*,#207,.F.);
#267=ORIENTED_EDGE('',*,*,#210,.F.);
#268=ORIENTED_EDGE('',*,*,#202,.T.);
#269=ORIENTED_EDGE('',*,*,#211,.T.);
#270=ORIENTED_EDGE('',*,*,#212,.T.);
#271=ORIENTED_EDGE('',*,*,#211,.F.);
#272=ORIENTED_EDGE('',*,*,#213,.F.);
#273=ORIENTED_EDGE('',*,*,#214,.F.);
#274=ORIENTED_EDGE('',*,*,#215,.T.);
#275=ORIENTED_EDGE('',*,*,#212,.F.);
#276=ORIENTED_EDGE('',*,*,#215,.F.);
#277=ORIENTED_EDGE('',*,*,#200,.T.);
#278=ORIENTED_EDGE('',*,*,#216,.T.);
#279=ORIENTED_EDGE('',*,*,#217,.T.);
#280=ORIENTED_EDGE('',*,*,#216,.F.);
#281=ORIENTED_EDGE('',*,*,#218,.F.);
#282=ORIENTED_EDGE('',*,*,#219,.F.);
#283=ORIENTED_EDGE('',*,*,#220,.T.);
#284=ORIENTED_EDGE('',*,*,#217,.F.);
#285=ORIENTED_EDGE('',*,*,#220,.F.);
#286=ORIENTED_EDGE('',*,*,#201,.T.);
#287=ORIENTED_EDGE('',*,*,#221,.T.);
#288=ORIENTED_EDGE('',*,*,#222,.T.);
#289=ORIENTED_EDGE('',*,*,#223,.T.);
#290=ORIENTED_EDGE('',*,*,#221,.F.);
#291=ORIENTED_EDGE('',*,*,#222,.F.);
#292=ORIENTED_EDGE('',*,*,#223,.F.);
#293=ORIENTED_EDGE('',*,*,#224,.T.);
#294=ORIENTED_EDGE('',*,*,#225,.F.);
#295=ORIENTED_EDGE('',*,*,#224,.F.);
#296=ORIENTED_EDGE('',*,*,#226,.T.);
#297=ORIENTED_EDGE('',*,*,#227,.T.);
#298=ORIENTED_EDGE('',*,*,#228,.T.);
#299=ORIENTED_EDGE('',*,*,#227,.F.);
#300=ORIENTED_EDGE('',*,*,#229,.F.);
#301=ORIENTED_EDGE('',*,*,#230,.T.);
#302=ORIENTED_EDGE('',*,*,#226,.F.);
#303=ORIENTED_EDGE('',*,*,#230,.F.);
#304=ORIENTED_EDGE('',*,*,#231,.F.);
#305=ORIENTED_EDGE('',*,*,#232,.F.);
#306=ORIENTED_EDGE('',*,*,#233,.F.);
#307=ORIENTED_EDGE('',*,*,#234,.F.);
#308=ORIENTED_EDGE('',*,*,#208,.T.);
#309=ORIENTED_EDGE('',*,*,#209,.T.);
#310=ORIENTED_EDGE('',*,*,#203,.T.);
#311=ORIENTED_EDGE('',*,*,#204,.T.);
#312=ORIENTED_EDGE('',*,*,#218,.T.);
#313=ORIENTED_EDGE('',*,*,#219,.T.);
#314=ORIENTED_EDGE('',*,*,#213,.T.);
#315=ORIENTED_EDGE('',*,*,#214,.T.);
#316=ORIENTED_EDGE('',*,*,#228,.F.);
#317=ORIENTED_EDGE('',*,*,#229,.T.);
#318=ORIENTED_EDGE('',*,*,#235,.T.);
#319=ORIENTED_EDGE('',*,*,#236,.T.);
#320=ORIENTED_EDGE('',*,*,#235,.F.);
#321=ORIENTED_EDGE('',*,*,#236,.F.);
#322=ORIENTED_EDGE('',*,*,#225,.T.);
#323=ORIENTED_EDGE('',*,*,#231,.T.);
#324=ORIENTED_EDGE('',*,*,#237,.F.);
#325=ORIENTED_EDGE('',*,*,#196,.T.);
#326=ORIENTED_EDGE('',*,*,#238,.T.);
#327=ORIENTED_EDGE('',*,*,#234,.T.);
#328=ORIENTED_EDGE('',*,*,#239,.F.);
#329=ORIENTED_EDGE('',*,*,#197,.T.);
#330=ORIENTED_EDGE('',*,*,#237,.T.);
#331=ORIENTED_EDGE('',*,*,#233,.T.);
#332=ORIENTED_EDGE('',*,*,#240,.F.);
#333=ORIENTED_EDGE('',*,*,#198,.T.);
#334=ORIENTED_EDGE('',*,*,#239,.T.);
#335=ORIENTED_EDGE('',*,*,#232,.T.);
#336=ORIENTED_EDGE('',*,*,#238,.F.);
#337=ORIENTED_EDGE('',*,*,#195,.T.);
#338=ORIENTED_EDGE('',*,*,#240,.T.);
#339=CONICAL_SURFACE('',#384,3.6,0.785398163397449);
#340=CONICAL_SURFACE('',#397,3.6,0.785398163397449);
#341=CONICAL_SURFACE('',#402,3.6,0.785398163397448);
#342=CONICAL_SURFACE('',#407,3.6,0.785398163397449);
#343=CONICAL_SURFACE('',#427,4.375,0.174532925199433);
#344=ADVANCED_FACE('',(#41),#339,.F.);
#345=ADVANCED_FACE('',(#42,#25,#26,#27,#28,#29),#36,.F.);
#346=ADVANCED_FACE('',(#43),#17,.F.);
#347=ADVANCED_FACE('',(#44),#340,.F.);
#348=ADVANCED_FACE('',(#45),#18,.F.);
#349=ADVANCED_FACE('',(#46),#341,.F.);
#350=ADVANCED_FACE('',(#47),#19,.F.);
#351=ADVANCED_FACE('',(#48),#342,.F.);
#352=ADVANCED_FACE('',(#49),#20,.F.);
#353=ADVANCED_FACE('',(#50),#15,.T.);
#354=ADVANCED_FACE('',(#51),#21,.F.);
#355=ADVANCED_FACE('',(#52),#16,.F.);
#356=ADVANCED_FACE('',(#53),#22,.T.);
#357=ADVANCED_FACE('',(#54,#30,#31,#32,#33,#34),#37,.T.);
#358=ADVANCED_FACE('',(#55),#343,.T.);
#359=ADVANCED_FACE('',(#56,#35),#38,.F.);
#360=ADVANCED_FACE('',(#57),#39,.T.);
#361=ADVANCED_FACE('',(#58),#23,.T.);
#362=ADVANCED_FACE('',(#59),#40,.T.);
#363=ADVANCED_FACE('',(#60),#24,.T.);
#364=CLOSED_SHELL('',(#344,#345,#346,#347,#348,#349,#350,#351,#352,#353,
#354,#355,#356,#357,#358,#359,#360,#361,#362,#363));
#365=DERIVED_UNIT_ELEMENT(#367,1.);
#366=DERIVED_UNIT_ELEMENT(#662,3.);
#367=(
MASS_UNIT()
NAMED_UNIT(*)
SI_UNIT($,.GRAM.)
);
#368=DERIVED_UNIT((#365,#366));
#369=MEASURE_REPRESENTATION_ITEM('density measure',
POSITIVE_RATIO_MEASURE(7.86),#368);
#370=PROPERTY_DEFINITION_REPRESENTATION(#375,#372);
#371=PROPERTY_DEFINITION_REPRESENTATION(#376,#373);
#372=REPRESENTATION('material name',(#374),#659);
#373=REPRESENTATION('density',(#369),#659);
#374=DESCRIPTIVE_REPRESENTATION_ITEM('Acier, doux','Acier, doux');
#375=PROPERTY_DEFINITION('material property','material name',#669);
#376=PROPERTY_DEFINITION('material property','density of part',#669);
#377=DATE_TIME_ROLE('creation_date');
#378=APPLIED_DATE_AND_TIME_ASSIGNMENT(#379,#377,(#669));
#379=DATE_AND_TIME(#380,#381);
#380=CALENDAR_DATE(2003,24,2);
#381=LOCAL_TIME(9,27,17.,#382);
#382=COORDINATED_UNIVERSAL_TIME_OFFSET(0,0,.BEHIND.);
#383=AXIS2_PLACEMENT_3D('placement',#555,#434,#435);
#384=AXIS2_PLACEMENT_3D('',#556,#436,#437);
#385=AXIS2_PLACEMENT_3D('',#558,#438,#439);
#386=AXIS2_PLACEMENT_3D('',#561,#441,#442);
#387=AXIS2_PLACEMENT_3D('',#562,#443,#444);
#388=AXIS2_PLACEMENT_3D('',#565,#445,#446);
#389=AXIS2_PLACEMENT_3D('',#569,#448,#449);
#390=AXIS2_PLACEMENT_3D('',#572,#451,#452);
#391=AXIS2_PLACEMENT_3D('',#574,#453,#454);
#392=AXIS2_PLACEMENT_3D('',#576,#455,#456);
#393=AXIS2_PLACEMENT_3D('',#578,#457,#458);
#394=AXIS2_PLACEMENT_3D('',#579,#459,#460);
#395=AXIS2_PLACEMENT_3D('',#582,#461,#462);
#396=AXIS2_PLACEMENT_3D('',#583,#463,#464);
#397=AXIS2_PLACEMENT_3D('',#585,#466,#467);
#398=AXIS2_PLACEMENT_3D('',#588,#469,#470);
#399=AXIS2_PLACEMENT_3D('',#589,#471,#472);
#400=AXIS2_PLACEMENT_3D('',#592,#473,#474);
#401=AXIS2_PLACEMENT_3D('',#593,#475,#476);
#402=AXIS2_PLACEMENT_3D('',#595,#478,#479);
#403=AXIS2_PLACEMENT_3D('',#598,#481,#482);
#404=AXIS2_PLACEMENT_3D('',#599,#483,#484);
#405=AXIS2_PLACEMENT_3D('',#602,#485,#486);
#406=AXIS2_PLACEMENT_3D('',#603,#487,#488);
#407=AXIS2_PLACEMENT_3D('',#605,#490,#491);
#408=AXIS2_PLACEMENT_3D('',#608,#493,#494);
#409=AXIS2_PLACEMENT_3D('',#609,#495,#496);
#410=AXIS2_PLACEMENT_3D('',#612,#497,#498);
#411=AXIS2_PLACEMENT_3D('',#613,#499,#500);
#412=AXIS2_PLACEMENT_3D('',#615,#502,#503);
#413=AXIS2_PLACEMENT_3D('',#617,#504,#505);
#414=AXIS2_PLACEMENT_3D('',#619,#506,#507);
#415=AXIS2_PLACEMENT_3D('',#620,#508,#509);
#416=AXIS2_PLACEMENT_3D('',#621,#510,#511);
#417=AXIS2_PLACEMENT_3D('',#624,#513,#514);
#418=AXIS2_PLACEMENT_3D('',#625,#515,#516);
#419=AXIS2_PLACEMENT_3D('',#627,#517,#518);
#420=AXIS2_PLACEMENT_3D('',#629,#519,#520);
#421=AXIS2_PLACEMENT_3D('',#630,#521,#522);
#422=AXIS2_PLACEMENT_3D('',#631,#523,#524);
#423=AXIS2_PLACEMENT_3D('',#633,#525,#526);
#424=AXIS2_PLACEMENT_3D('',#635,#528,#529);
#425=AXIS2_PLACEMENT_3D('',#640,#531,#532);
#426=AXIS2_PLACEMENT_3D('',#643,#534,#535);
#427=AXIS2_PLACEMENT_3D('',#644,#536,#537);
#428=AXIS2_PLACEMENT_3D('',#647,#539,#540);
#429=AXIS2_PLACEMENT_3D('',#648,#541,#542);
#430=AXIS2_PLACEMENT_3D('',#649,#543,#544);
#431=AXIS2_PLACEMENT_3D('',#652,#547,#548);
#432=AXIS2_PLACEMENT_3D('',#654,#550,#551);
#433=AXIS2_PLACEMENT_3D('',#656,#553,#554);
#434=DIRECTION('axis',(0.,0.,1.));
#435=DIRECTION('refdir',(1.,0.,0.));
#436=DIRECTION('center_axis',(0.,0.,-1.));
#437=DIRECTION('ref_axis',(1.,0.,0.));
#438=DIRECTION('center_axis',(0.,0.,-1.));
#439=DIRECTION('ref_axis',(1.,0.,0.));
#440=DIRECTION('',(0.707106781186548,-8.65956056235494E-17,0.707106781186547));
#441=DIRECTION('center_axis',(0.,0.,1.));
#442=DIRECTION('ref_axis',(1.,0.,0.));
#443=DIRECTION('center_axis',(0.,0.,1.));
#444=DIRECTION('ref_axis',(1.,0.,0.));
#445=DIRECTION('center_axis',(0.,0.,1.));
#446=DIRECTION('ref_axis',(0.,1.,0.));
#447=DIRECTION('',(-1.,0.,0.));
#448=DIRECTION('center_axis',(0.,0.,1.));
#449=DIRECTION('ref_axis',(0.,-1.,0.));
#450=DIRECTION('',(1.,0.,0.));
#451=DIRECTION('center_axis',(0.,0.,-1.));
#452=DIRECTION('ref_axis',(1.,0.,0.));
#453=DIRECTION('center_axis',(0.,0.,-1.));
#454=DIRECTION('ref_axis',(1.,0.,0.));
#455=DIRECTION('center_axis',(0.,0.,-1.));
#456=DIRECTION('ref_axis',(1.,-1.22464679914735E-16,0.));
#457=DIRECTION('center_axis',(0.,0.,-1.));
#458=DIRECTION('ref_axis',(1.,0.,0.));
#459=DIRECTION('center_axis',(0.,0.,1.));
#460=DIRECTION('ref_axis',(1.,0.,0.));
#461=DIRECTION('center_axis',(0.,0.,-1.));
#462=DIRECTION('ref_axis',(1.,0.,0.));
#463=DIRECTION('center_axis',(0.,0.,-1.));
#464=DIRECTION('ref_axis',(1.,0.,0.));
#465=DIRECTION('',(0.,0.,-1.));
#466=DIRECTION('center_axis',(0.,0.,-1.));
#467=DIRECTION('ref_axis',(1.,0.,0.));
#468=DIRECTION('',(0.707106781186548,-8.65956056235494E-17,0.707106781186547));
#469=DIRECTION('center_axis',(0.,0.,1.));
#470=DIRECTION('ref_axis',(1.,0.,0.));
#471=DIRECTION('center_axis',(0.,0.,1.));
#472=DIRECTION('ref_axis',(1.,0.,0.));
#473=DIRECTION('center_axis',(0.,0.,-1.));
#474=DIRECTION('ref_axis',(1.,0.,0.));
#475=DIRECTION('center_axis',(0.,0.,-1.));
#476=DIRECTION('ref_axis',(1.,0.,0.));
#477=DIRECTION('',(0.,0.,-1.));
#478=DIRECTION('center_axis',(0.,0.,-1.));
#479=DIRECTION('ref_axis',(1.,0.,0.));
#480=DIRECTION('',(0.707106781186547,-8.65956056235493E-17,0.707106781186548));
#481=DIRECTION('center_axis',(0.,0.,1.));
#482=DIRECTION('ref_axis',(1.,0.,0.));
#483=DIRECTION('center_axis',(0.,0.,1.));
#484=DIRECTION('ref_axis',(1.,0.,0.));
#485=DIRECTION('center_axis',(0.,0.,-1.));
#486=DIRECTION('ref_axis',(1.,0.,0.));
#487=DIRECTION('center_axis',(0.,0.,-1.));
#488=DIRECTION('ref_axis',(1.,0.,0.));
#489=DIRECTION('',(0.,0.,-1.));
#490=DIRECTION('center_axis',(0.,0.,-1.));
#491=DIRECTION('ref_axis',(1.,0.,0.));
#492=DIRECTION('',(0.707106781186548,-8.65956056235494E-17,0.707106781186547));
#493=DIRECTION('center_axis',(0.,0.,1.));
#494=DIRECTION('ref_axis',(1.,0.,0.));
#495=DIRECTION('center_axis',(0.,0.,1.));
#496=DIRECTION('ref_axis',(1.,0.,0.));
#497=DIRECTION('center_axis',(0.,0.,-1.));
#498=DIRECTION('ref_axis',(1.,0.,0.));
#499=DIRECTION('center_axis',(0.,0.,-1.));
#500=DIRECTION('ref_axis',(1.,0.,0.));
#501=DIRECTION('',(0.,0.,-1.));
#502=DIRECTION('center_axis',(0.,0.,1.));
#503=DIRECTION('ref_axis',(1.,0.,0.));
#504=DIRECTION('center_axis',(1.22464679914735E-16,-1.,0.));
#505=DIRECTION('ref_axis',(-1.,-1.22464679914735E-16,0.));
#506=DIRECTION('center_axis',(0.,0.,1.));
#507=DIRECTION('ref_axis',(1.,-1.22464679914735E-16,0.));
#508=DIRECTION('center_axis',(0.,0.,1.));
#509=DIRECTION('ref_axis',(1.,-1.22464679914735E-16,0.));
#510=DIRECTION('center_axis',(0.,0.,-1.));
#511=DIRECTION('ref_axis',(-1.,0.,0.));
#512=DIRECTION('',(0.,0.,1.));
#513=DIRECTION('center_axis',(0.,0.,-1.));
#514=DIRECTION('ref_axis',(-1.,0.,0.));
#515=DIRECTION('center_axis',(0.,0.,-1.));
#516=DIRECTION('ref_axis',(-1.,0.,0.));
#517=DIRECTION('center_axis',(0.,0.,-1.));
#518=DIRECTION('ref_axis',(-1.,0.,0.));
#519=DIRECTION('center_axis',(-1.22464679914735E-16,-1.,0.));
#520=DIRECTION('ref_axis',(1.,-1.22464679914735E-16,0.));
#521=DIRECTION('center_axis',(0.,0.,1.));
#522=DIRECTION('ref_axis',(-1.,0.,0.));
#523=DIRECTION('center_axis',(0.,0.,1.));
#524=DIRECTION('ref_axis',(-1.,0.,0.));
#525=DIRECTION('center_axis',(0.,0.,1.));
#526=DIRECTION('ref_axis',(-1.,0.,0.));
#527=DIRECTION('',(0.,0.,-1.));
#528=DIRECTION('center_axis',(0.,0.,1.));
#529=DIRECTION('ref_axis',(1.,0.,0.));
#530=DIRECTION('',(1.,0.,0.));
#531=DIRECTION('center_axis',(0.,0.,-1.));
#532=DIRECTION('ref_axis',(0.,1.,0.));
#533=DIRECTION('',(-1.,0.,0.));
#534=DIRECTION('center_axis',(0.,0.,-1.));
#535=DIRECTION('ref_axis',(0.,-1.,0.));
#536=DIRECTION('center_axis',(0.,0.,-1.));
#537=DIRECTION('ref_axis',(-1.,0.,0.));
#538=DIRECTION('',(-0.17364817766693,2.12657684957577E-17,0.984807753012208));
#539=DIRECTION('center_axis',(0.,0.,-1.));
#540=DIRECTION('ref_axis',(-1.,0.,0.));
#541=DIRECTION('center_axis',(0.,0.,-1.));
#542=DIRECTION('ref_axis',(-1.,0.,0.));
#543=DIRECTION('center_axis',(0.,1.,0.));
#544=DIRECTION('ref_axis',(0.,0.,1.));
#545=DIRECTION('',(0.,0.,1.));
#546=DIRECTION('',(0.,0.,1.));
#547=DIRECTION('center_axis',(0.,0.,1.));
#548=DIRECTION('ref_axis',(0.,-1.,0.));
#549=DIRECTION('',(0.,0.,1.));
#550=DIRECTION('center_axis',(0.,-1.,0.));
#551=DIRECTION('ref_axis',(0.,0.,-1.));
#552=DIRECTION('',(0.,0.,1.));
#553=DIRECTION('center_axis',(0.,0.,1.));
#554=DIRECTION('ref_axis',(0.,1.,0.));
#555=CARTESIAN_POINT('',(0.,0.,0.));
#556=CARTESIAN_POINT('Origin',(13.1,4.00000000000001,0.5));
#557=CARTESIAN_POINT('',(9.,4.00000000000001,0.));
#558=CARTESIAN_POINT('Origin',(13.1,4.00000000000001,0.));
#559=CARTESIAN_POINT('',(10.,4.00000000000001,1.));
#560=CARTESIAN_POINT('',(9.5,4.00000000000001,0.5));
#561=CARTESIAN_POINT('Origin',(13.1,4.00000000000001,1.));
#562=CARTESIAN_POINT('Origin',(2.72555453710785E-15,0.,0.));
#563=CARTESIAN_POINT('',(-26.9,10.25,0.));
#564=CARTESIAN_POINT('',(-26.9,-10.25,0.));
#565=CARTESIAN_POINT('Origin',(-26.9,0.,0.));
#566=CARTESIAN_POINT('',(26.9,10.25,0.));
#567=CARTESIAN_POINT('',(26.9,10.25,0.));
#568=CARTESIAN_POINT('',(26.9,-10.25,0.));
#569=CARTESIAN_POINT('Origin',(26.9,0.,0.));
#570=CARTESIAN_POINT('',(-26.9,-10.25,0.));
#571=CARTESIAN_POINT('',(23.3,-3.99999999999999,0.));
#572=CARTESIAN_POINT('Origin',(27.4,-3.99999999999999,0.));
#573=CARTESIAN_POINT('',(-31.,4.,0.));
#574=CARTESIAN_POINT('Origin',(-26.9,4.,0.));
#575=CARTESIAN_POINT('',(-4.3235,-3.38194001127791E-15,0.));
#576=CARTESIAN_POINT('Origin',(-4.44089209850063E-15,-4.44089209850063E-15,
0.));
#577=CARTESIAN_POINT('',(-16.7,-4.,0.));
#578=CARTESIAN_POINT('Origin',(-12.6,-4.,0.));
#579=CARTESIAN_POINT('Origin',(13.1,4.00000000000001,-2.2));
#580=CARTESIAN_POINT('',(16.2,4.00000000000001,1.8));
#581=CARTESIAN_POINT('',(10.,4.00000000000001,1.8));
#582=CARTESIAN_POINT('Origin',(13.1,4.00000000000001,1.8));
#583=CARTESIAN_POINT('Origin',(13.1,4.00000000000001,1.8));
#584=CARTESIAN_POINT('',(10.,4.00000000000001,-2.2));
#585=CARTESIAN_POINT('Origin',(27.4,-3.99999999999999,0.5));
#586=CARTESIAN_POINT('',(24.3,-3.99999999999999,1.));
#587=CARTESIAN_POINT('',(23.8,-3.99999999999999,0.5));
#588=CARTESIAN_POINT('Origin',(27.4,-3.99999999999999,1.));
#589=CARTESIAN_POINT('Origin',(27.4,-3.99999999999999,-2.2));
#590=CARTESIAN_POINT('',(30.5,-3.99999999999999,1.8));
#591=CARTESIAN_POINT('',(24.3,-3.99999999999999,1.8));
#592=CARTESIAN_POINT('Origin',(27.4,-3.99999999999999,1.8));
#593=CARTESIAN_POINT('Origin',(27.4,-3.99999999999999,1.8));
#594=CARTESIAN_POINT('',(24.3,-3.99999999999999,-2.2));
#595=CARTESIAN_POINT('Origin',(-12.6,-4.,0.5));
#596=CARTESIAN_POINT('',(-15.7,-4.,1.));
#597=CARTESIAN_POINT('',(-16.2,-4.,0.5));
#598=CARTESIAN_POINT('Origin',(-12.6,-4.,1.));
#599=CARTESIAN_POINT('Origin',(-12.6,-4.,-2.2));
#600=CARTESIAN_POINT('',(-9.49999999999999,-4.,1.8));
#601=CARTESIAN_POINT('',(-15.7,-4.,1.8));
#602=CARTESIAN_POINT('Origin',(-12.6,-4.,1.8));
#603=CARTESIAN_POINT('Origin',(-12.6,-4.,1.8));
#604=CARTESIAN_POINT('',(-15.7,-4.,-2.2));
#605=CARTESIAN_POINT('Origin',(-26.9,4.,0.5));
#606=CARTESIAN_POINT('',(-30.,4.,1.));
#607=CARTESIAN_POINT('',(-30.5,4.,0.5));
#608=CARTESIAN_POINT('Origin',(-26.9,4.,1.));
#609=CARTESIAN_POINT('Origin',(-26.9,4.,-2.2));
#610=CARTESIAN_POINT('',(-23.8,4.,1.8));
#611=CARTESIAN_POINT('',(-30.,4.,1.8));
#612=CARTESIAN_POINT('Origin',(-26.9,4.,1.8));
#613=CARTESIAN_POINT('Origin',(-26.9,4.,1.8));
#614=CARTESIAN_POINT('',(-30.,4.,-2.2));
#615=CARTESIAN_POINT('Origin',(-4.44089209850063E-15,-4.44089209850063E-15,
0.999999999999996));
#616=CARTESIAN_POINT('',(-3.3235,-4.44089209850063E-15,0.999999999999996));
#617=CARTESIAN_POINT('Origin',(-4.3235,-4.97036814211198E-15,0.999999999999996));
#618=CARTESIAN_POINT('',(3.3235,-4.84790346219725E-15,0.999999999999996));
#619=CARTESIAN_POINT('Origin',(-4.44089209850063E-15,-4.44089209850063E-15,
0.999999999999996));
#620=CARTESIAN_POINT('Origin',(-4.44089209850063E-15,-4.44089209850063E-15,
0.999999999999996));
#621=CARTESIAN_POINT('Origin',(-4.44089209850063E-15,-4.44089209850063E-15,
77.1960491217005));
#622=CARTESIAN_POINT('',(3.3235,-4.84790346219725E-15,4.3));
#623=CARTESIAN_POINT('',(3.3235,-4.84790346219725E-15,77.1960491217005));
#624=CARTESIAN_POINT('Origin',(-4.44089209850063E-15,-4.44089209850063E-15,
4.3));
#625=CARTESIAN_POINT('Origin',(4.44089209850063E-15,2.22044604925031E-15,
2.8));
#626=CARTESIAN_POINT('',(4.5,1.669354989634E-15,2.8));
#627=CARTESIAN_POINT('Origin',(4.44089209850063E-15,2.22044604925031E-15,
2.8));
#628=CARTESIAN_POINT('',(5.50000000000001,2.89400178878136E-15,1.8));
#629=CARTESIAN_POINT('Origin',(5.50000000000001,1.54689030971927E-15,2.8));
#630=CARTESIAN_POINT('Origin',(4.44089209850063E-15,2.22044604925031E-15,
1.8));
#631=CARTESIAN_POINT('Origin',(4.44089209850063E-15,2.22044604925031E-15,
1.8));
#632=CARTESIAN_POINT('',(4.5,2.77153710886662E-15,2.88217954509557));
#633=CARTESIAN_POINT('Origin',(4.44089209850063E-15,2.22044604925031E-15,
2.88217954509557));
#634=CARTESIAN_POINT('',(4.5,2.77153710886662E-15,1.8));
#635=CARTESIAN_POINT('Origin',(1.71533756139278E-15,0.,1.8));
#636=CARTESIAN_POINT('',(-26.9,10.25,1.8));
#637=CARTESIAN_POINT('',(26.9,10.25,1.8));
#638=CARTESIAN_POINT('',(26.9,10.25,1.8));
#639=CARTESIAN_POINT('',(-26.9,-10.25,1.8));
#640=CARTESIAN_POINT('Origin',(-26.9,0.,1.8));
#641=CARTESIAN_POINT('',(26.9,-10.25,1.8));
#642=CARTESIAN_POINT('',(-26.9,-10.25,1.8));
#643=CARTESIAN_POINT('Origin',(26.9,0.,1.8));
#644=CARTESIAN_POINT('Origin',(4.44089209850063E-15,2.22044604925031E-15,
3.59108977254779));
#645=CARTESIAN_POINT('',(4.25,1.69997115961269E-15,4.3));
#646=CARTESIAN_POINT('',(4.375,1.68466307462335E-15,3.59108977254779));
#647=CARTESIAN_POINT('Origin',(4.44089209850063E-15,2.22044604925031E-15,
4.3));
#648=CARTESIAN_POINT('Origin',(4.44089209850063E-15,2.22044604925031E-15,
4.3));
#649=CARTESIAN_POINT('Origin',(-26.9,10.25,0.));
#650=CARTESIAN_POINT('',(26.9,10.25,0.));
#651=CARTESIAN_POINT('',(-26.9,10.25,0.));
#652=CARTESIAN_POINT('Origin',(26.9,0.,0.));
#653=CARTESIAN_POINT('',(26.9,-10.25,0.));
#654=CARTESIAN_POINT('Origin',(26.9,-10.25,0.));
#655=CARTESIAN_POINT('',(-26.9,-10.25,0.));
#656=CARTESIAN_POINT('Origin',(-26.9,0.,0.));
#657=UNCERTAINTY_MEASURE_WITH_UNIT(LENGTH_MEASURE(0.01),#661,
'DISTANCE_ACCURACY_VALUE',
'Maximum model space distance between geometric entities at asserted c
onnectivities');
#658=UNCERTAINTY_MEASURE_WITH_UNIT(LENGTH_MEASURE(0.01),#661,
'DISTANCE_ACCURACY_VALUE',
'Maximum model space distance between geometric entities at asserted c
onnectivities');
#659=(
GEOMETRIC_REPRESENTATION_CONTEXT(3)
GLOBAL_UNCERTAINTY_ASSIGNED_CONTEXT((#657))
GLOBAL_UNIT_ASSIGNED_CONTEXT((#661,#663,#664))
REPRESENTATION_CONTEXT('','3D')
);
#660=(
GEOMETRIC_REPRESENTATION_CONTEXT(3)
GLOBAL_UNCERTAINTY_ASSIGNED_CONTEXT((#658))
GLOBAL_UNIT_ASSIGNED_CONTEXT((#661,#663,#664))
REPRESENTATION_CONTEXT('','3D')
);
#661=(
LENGTH_UNIT()
NAMED_UNIT(*)
SI_UNIT(.MILLI.,.METRE.)
);
#662=(
LENGTH_UNIT()
NAMED_UNIT(*)
SI_UNIT(.CENTI.,.METRE.)
);
#663=(
NAMED_UNIT(*)
PLANE_ANGLE_UNIT()
SI_UNIT($,.RADIAN.)
);
#664=(
NAMED_UNIT(*)
SI_UNIT($,.STERADIAN.)
SOLID_ANGLE_UNIT()
);
#665=SHAPE_DEFINITION_REPRESENTATION(#666,#667);
#666=PRODUCT_DEFINITION_SHAPE('',$,#669);
#667=SHAPE_REPRESENTATION('',(#383),#659);
#668=PRODUCT_DEFINITION_CONTEXT('part definition',#673,'design');
#669=PRODUCT_DEFINITION('26','26',#670,#668);
#670=PRODUCT_DEFINITION_FORMATION('',$,#675);
#671=PRODUCT_RELATED_PRODUCT_CATEGORY('26','26',(#675));
#672=APPLICATION_PROTOCOL_DEFINITION('international standard',
'automotive_design',2009,#673);
#673=APPLICATION_CONTEXT(
'Core Data for Automotive Mechanical Design Process');
#674=PRODUCT_CONTEXT('part definition',#673,'mechanical');
#675=PRODUCT('26','26',$,(#674));
#676=PRESENTATION_STYLE_ASSIGNMENT((#677));
#677=SURFACE_STYLE_USAGE(.BOTH.,#680);
#678=SURFACE_STYLE_RENDERING_WITH_PROPERTIES($,#684,(#679));
#679=SURFACE_STYLE_TRANSPARENT(1.);
#680=SURFACE_SIDE_STYLE('',(#681,#678));
#681=SURFACE_STYLE_FILL_AREA(#682);
#682=FILL_AREA_STYLE('',(#683));
#683=FILL_AREA_STYLE_COLOUR('',#684);
#684=COLOUR_RGB('',0.87843137254902,0.874509803921569,0.858823529411765);
ENDSEC;
END-ISO-10303-21;
